Song name
# A B C D E F G H I J K L M N O P Q R S T U V W X Y Z

Trick Daddy - Im A Thug tab

---8---------8--9--8---------8--9--8--------------8-9-8---------------------|
------9---------------9---------------9---------9--------9------------------|
---------8---------------8---------------8---8--------------8---------------|
----------------------------------------------------------------------------|
----------------------------------------------------------------------------|
----------------------------------------------------------------------------|


---8---------8--9--8---------8--9--8--------------8-9-8---------------------|
------9---------------9---------------9---------9--------9------------------|
---------8---------------8---------------8---8--------------8---------------|
----------------------------------------------------------------------------|
----------------------------------------------------------------------------|
----------------------------------------------------------------------------|
Tap to rate this tab
 
# A B C D E F G H I J K L M N O P Q R S T U V W X Y Z