Song name
# A B C D E F G H I J K L M N O P Q R S T U V W X Y Z

Tricky Woo - Aladianspain tab

ALADIANSPAIN
by Tricky Woo
tabbed by:  Dave Schneider

(RIFF 1)					  (RIFF 2)
E|---------------------------------||-------------|
B|---------------------------------||-------------|
G|---------------------------------||---7---------|
D|---------2-4-2-4---------2-4-2-4-||---7----7----|
A|-2-4-2-4-0-0-0-0-2-4-2-4-0-0-0-0-||---5----7----|
E|-0-0-0-0---------0-0-0-0---------||--------5----|

(RIFF 3)						   (RIFF 4)
E|---------------------------------------||---------------|
B|---------------------------------------||---------------|
G|----------------------------7-----7----||--1------6-----|
D|--------------10-12-10-12---7-7---7-7--||--2------7-----|
A|--10-12-10-12--8--8--8--8---5-7---5-7--||--2-----7---7--|
E|---8--8--8--8-----------------5-----5--||--0---/5-------|

the order of this song goes:
riff 1
riff 2
riff 1
riff 2
riff 3
riff 4
riff 2
riff 3
riff 4
riff 1

and you just jam out the end hitting the E chord
its a crazy \slash\ great song.	\have fun/be good\

dave schneider	     O hand picked O tree ripened O
Tap to rate this tab
# A B C D E F G H I J K L M N O P Q R S T U V W X Y Z