Song name
# A B C D E F G H I J K L M N O P Q R S T U V W X Y Z

Tricky Woo - Hypnotic Persuassion tab

HYPNOTIC PERSUASION
by Tricky Woo
tabbed by:  Dave Schneider

(RIFF 1)	      or
E|---------------|--|--------------|
B|---------------|--|----------5~--|
G|---------------|--|----------5~--|
D|--7-7----------|--|--7-7-5-7-----|
A|--7-7------3~--|--|--7-7---------|
E|--5-5--3-5-----|--|--5-5---------|

(RIFF 2)						(RIFF 3)
E|---------------------------------|--------------------------|----|
B|---------------------------------|--------------------------|----|
G|--5-5----5-5---7-7--7------------|--------------------------|----|
D|--5-5----5-5---7-7--7----5-------|------------------5-7-5---|-7\-|
A|--3-3----3-3---5-5--5-/7---7-5---|--------5-5-6-7-7-------7-|-7\-|
E|-------------------------------8-|--5-5-8-------------------|-5\-|

BRIDGE
E|-------------------------------------------------------|
B|----------------------------------------5-7-5-7(9)-----|
G|--9-9-9------5-7-5-7(9)-7(9)7h5---5-----5-7-5-7(9)-----|
D|--9-9-9--7-7--------------------7---7-7----------------|
A|--7-7-7------------------------------------------------|
E|-------------------------------------------------------|

you'll have to do RIFF 3 again but
just do it two frets higher so you
start on the 7th fret.			then...

(RIFF 4)
E|-------------------------------------------------------------------|
B|-------------------------------------------------------------------|
G|--------------8-11-------------6-9-------------4-7-----------------|
D|-----8-11-9-9----------6-9-7-7---------4-7-5-5---------------------|
A|-9-9---------------7-7-------------5-5-------------4-3-4-3-4-3-4-3-|
E|-------------------------------------------------------------------|

(RIFF 5)
E|----------------------|------|---------------|
B|----------------------|------|---------------|
G|-9-9--------9-9-------|--9\--|--6-6-6--------|
D|-9-9-----5~-9-9-----5-|--9\--|--6-6-6---4----|
A|-7-7-5-7----7-7-5-7---|--7\--|--4-4-4---4----|
E|----------------------|------|----------2----|

the order:
riff 1
riff 2
riff 1
riff 2
riff 3
bridge
riff 1
riff 2
riff 3
riff 3 (two frets up)
riff 4
riff 5

thats all friends...		have fun /SLASH\ be good

dave schneider	     O hand picked O tree ripened O
Tap to rate this tab
# A B C D E F G H I J K L M N O P Q R S T U V W X Y Z