Song name
# A B C D E F G H I J K L M N O P Q R S T U V W X Y Z

Tricky Woo - Fly The Orient tab

  My name is Ryan and this is the first guitar tab I have ever submited
but my instructer told me how to play this song and it sounds awesome.I have been 
the guitar for about a year and I am pretty good noticeing I am 12 going on 13.
    intro
E|--11-11--------------9--11-|
B|--13-13---9--9--11--11--13-|
G|--13-13--11-11--13--11--13-|
D|---------11-11--13---------|
A|---------------------------|
E|---------------------------| repeet 14  times.
    chours
E|---44444444444444---44444444444444--|
B|---66666666666666---66666666666666--|
G|---66666666666666---66666666666666--|
D|--------------------22222222222222--|
A|------------------------------------|
E|------------------------------------| Dont mute the guitar

  pre-chours
E|--11-11--------------9--11-|
B|--13-13---9--9--11--11--13-|
G|--13-13--11-11--13--11--13-|
D|---------11-11--13---------|
A|---------------------------|
E|---------------------------| repeet.
Tap to rate this tab
# A B C D E F G H I J K L M N O P Q R S T U V W X Y Z