Song name
# A B C D E F G H I J K L M N O P Q R S T U V W X Y Z

Trigger Point - Picking Up The Pieces tab

this is from an underground band but they are really really good and if you  can 
the song and play along with it it will help! enjoy!!


                           Intro
e|-------------2h5p2------------------------------------------------------|
B|----5-4-------------2h3p2-------2h3p2-----------------------------------|
G|--------------------------4-2-4-------4---------------------------------| x4
D|22-------0--------------------------------------------------------------|
A|22-------0--------------------------------------------------------------|
D|22-------0--------------------------------------------------------------|
                           Bridge
e|------------------------------------------------------------------------|
B|------------------------------------------------------------------------|
G|------------------------------------------------------------------------|
D|0--00--0---0000--0---2--2--2--2-----------------------------------------|x4
A|0--00--0---0000--0---2--2--2--2-----------------------------------------|
D|0--00--0---0000--0---2--2--2--2-----------------------------------------|
     PM      PMPM         PM    PM

                           Verse
e|------------------------------------------------------------------------|
B|---2h3p2------2h3p2------2h3p2------------------------------------------|
G|------4h2---------4h2----------4h2--------------------------------------|
D|00---------00---------00------------------------------------------------|
A|00---------00---------00-------------3----------------------------------|
D|00---------00---------00------------2-2---------------------------------|
  PM         PM


                          Chorus
e|------------------------------------------------------------------------|
B|------------------------------------------------------------------------|
G|------------------------------------------------------------------------|
D|5-55555--55555--55555--55550--00000--00000--00000--00005----------------|
A|5-55555--55555--55555--55550--00000--00000--00000--00005----------------|
D|5-55555--55555--55555--55550--00000--00000--00000--00005----------------|

e|------------------------------------------------------------------------|
B|------------------------------------------------------------------------|
G|------------------------------------------------------------------------|
D|55555--55555--55555--5--5---(7)----00000--00000--00000------------------|
A|55555--55555--55555--5--5---(7)----00000--00000--00000------------------|
D|55555--55555--55555--5--5---(7)----00000--00000--00000------------------|

Move into the bridge then there is a new chorus... the rest of the song isnt that hard 
figure out its all the same stuff but dont in different orders... but here is the chorus 2


e|------------------------------------------------------------------------|
B|------------------------------------------------------------------------|
G|------------------------------------------------------------------------|
D|5--55555--55555--55555--55554--44444--44444--44444--44445---------------|x4
A|5--55555--55555--55555--55554--44444--44444--44444--44445---------------|
D|5--55555--55555--55555--55554--44444--44444--44444--44445---------------|

well thats pretty much it... the part with the harmonics is just D to the 7 marmonic so 
easy! well thnx alot!! email me for any info on anything k? alright peace!!

your buddy

JTizzle
Tap to rate this tab
# A B C D E F G H I J K L M N O P Q R S T U V W X Y Z