Song name
# A B C D E F G H I J K L M N O P Q R S T U V W X Y Z

Triggerfinger - On My Knees tab

			-----------------------------------------------
			l		TRIGGERFINGER		      l
			l		 ON MY KNEES		      l
			-----------------------------------------------
Tabed by:tom huylebroeck
Datum	:26/12/04
Title	:On my Knees
Auteur	:Triggerfinger
Album	:Triggerfinger

Dit nummer wordt gespeeld in Drop D

Intro

E -----------------------|
B -----------------------|
G -----------------------|	x 4
D -----------------------|
A -3--4--5--6--7--8------|
D -3--4--5--6--7--8------|

Verse

E ----2----2----2---------------------------|
B ----3----3----3---------------------------|
G ----2----2----2---------------------------|
D ----0----0----0---------------------0-----|
A --0----0----0----0--3--5--6--7---2h3------|
D --0----0----0----0--3--5--6--7------------|

E ----2----2----2---------------------------|
B ----3----3----3---------------------------|
G ----2----2----2---------------------------|
D ----0----0----0---------------------------|
A --0----0----0----0--3--5--6--5--3---------|
D --0----0----0----0--3--5--6--5--3---------|

wanneer de zang invalt :

E ----2----2-------------------------------|
B ----3----3-------------------------------|
G ----2----2-------------------------------|
D ----0----0-------------------------0-----|
A --0----0--------0--3--5--6--7---2h3------|
D --0----0--------0--3--5--6--7------------|
						dit x 2
E ----2----2-------------------------------|
B ----3----3-------------------------------|
G ----2----2-------------------------------|
D ----0----0-------------------------------|
A --0----0--------0--3--5--6--5--3---------|
D --0----0--------0--3--5--6--5--3---------|

dan:

E ------------------------2----2----2----------------------------------------|
B ------------------------3----3----3----------------------------------------|
G ------------------------2----2----2----------------------------------------|
D ------------------------0----0----0---------------------0------------------|
A -9-9-9-9-8-8-8-8------0----0----0----0--3--5--6--7---2h3---9-9-9-9-8-8-8-8-|
D -9-9-9-9-8-8-8-8------0----0----0----0--3--5--6--7---------9-9-9-9-8-8-8-8-|

Riff later in het nummer:

E ------------------------2------|
B ------------------------3------|
G ------------------------2------|
D ------------------------0------|
A --3-2-0-3-2-0--------0-0-------|
D --------------5-0-3--0-0-------|
Tap to rate this tab
 
# A B C D E F G H I J K L M N O P Q R S T U V W X Y Z