Song name
# A B C D E F G H I J K L M N O P Q R S T U V W X Y Z

Triggerfinger - Is It tab

I couldnt find any tab of this song on the internet so i used the little expercience 
i have to write it  myself. Its not complete and there are some mistakes but hey its my 
time i write a tab ;) .

intro:
e|----------------|----------------|
B|----------------|----------------|
G|---2------5-----|--8-7-5-8-7-5-7-|
D|---2------5-----|--8-7-5-8-7-5-7-|
A|---0------3-----|--6-5-3-6-5-3-5-|
E|----------------|----------------|

this is what i hear,  but you have to improvise a little more on this , put on the song 
to it and play a long using this ;)
e|-------------------------|-------------------------|
B|-------------------------|-------------------------|
G|-------------------------|-------------------------|
D|--2-2-4-2-5---2-2-4-2-5--|--2-2-4-2-5---2-2-4-2-5--|
A|--0-0-0-0-0---0-0-0-0-0--|--3-3-3-3-3---3-3-3-3-3--|
E|-------------------------|-------------------------|

i'm not sure of the last two powerchords.
e|-------------------|--------------------------------------------------------|
B|-------------------|--------------------------------------------------------|
G|--7-7-7-7-7-7-7-7--|-----------------2-2-2-2--2-2---------------------------|
D|--7-7-7-7-7-7-7-7--|-----------------2-2-2-2--2-2--3-3-3-3-5--5-5-----------|
A|--5-5-5-5-5-5-5-5--|-5-3-2-5-3-2-0---0-0-0-0--0-0--3-3-3-3-5--5-5-----------|
E|-------------------|-------------------------------1-1-1-1-3--3-3-----------|

some times it goes like this
e|-------------------------|---------------------------|
B|-------------------------|---------------------------|
G|-------------------------|---------------------------|
D|--2-2-4-2-5---2-2-4-2-5--|--2-2-4-2-5---2-2-4-2-5----|
A|--0-0-0-0-0---0-0-0-0-0--|--3-3-3-3-3---3-3-3-3-3----|
E|-------------------------|---------------------------|

e|-------------------|---------------------------------|
B|---8-7-5-8-7-5-7---|---------------------------------|
G|---8-7-5-8-7-5-7---|---------------------------------|
D|---6-5-3-6-5-3-5---|---------------------------------|
A|-------------------|---------------------------------|
E|-------------------|---------------------------------|

if i had more time i would have wote the whole tab , but someone can take it from here.
Tap to rate this tab
 
# A B C D E F G H I J K L M N O P Q R S T U V W X Y Z