Triggerfinger - All This Dancin Around tab

Guitar tuning: 1/2 step down.

Intro (4x)
e|--------------------------------------------------------------------|
B|----------------------5---5-----------------------------------------|
G|---4/6---6---6--4--6----------6-4-----------------------------------|
D|----------------------------------4--2---2---2-----2--4--4----------|
A|------------------------------------------------4-------------------|
E|--------------------------------------------------------------------|

Chorus
     C#m       C#m7                   E                F#
e|---4---4---4--4--4--4---4-----------0---0---0--0--0--2---2----------|
B|---5---5---5--5--5--5---5---4-------0---0---0--0--0--2---2----------|
G|---6---6---6--4--6--4---4-----6-4---1---1---1--1--1--3---3----------|
D|---6---6---6--6--6--6---6-----------2---2---2--0--2--4---4----------|
A|---4---4---4--4--4--4---4-----------2---2---2--0--2--4---4----------|
E|---x---x---x--x--x--x---4-----------0---0---0--0--0--2---2----------|

Bridge
     F# G  Ab       B        C#         Ab       B        C#         G
e|---2--3--4--4---4/7--7---7/9---9------4--4---4/7--7---7/9---9------3|
B|---2--3--4--4---4/7--7---7/9---9------4--4---4/7--7---7/9---9------3|
G|---3--4--5--5---5/8--8---8/10--10-----5--5---5/8--8---8/10--10-----4|
D|---4--5--6--6---6/9--9---9/11--11-----6--6---6/9--9---9/11--11-----5|
A|---4--5--6--6---6/9--9---9/11--11-----6--6---6/9--9---9/11--11-----5|
E|---2--3--4--4---4/7--7---7/9---9------4--4---4/7--7---7/9---9------3|
                                       |-----------2x------------|
Tap to rate this tab
 
# A B C D E F G H I J K L M N O P Q R S T U V W X Y Z