Song name
# A B C D E F G H I J K L M N O P Q R S T U V W X Y Z

Triggerfinger - First Taste tab

Okay, since there's absolutely no tab of the song at all on the whole internet, I've
tried to get all the parts together.

Now, you can never play like Ruben Block because he's awesome, but try to with this tab.

Band: Triggerfinger
Song: First Tast
Tabbed By: SchecterDiamond

You gotta now that you've got to put the tab in Word so it looks better, also it's
played in Drop C, but i've made it Drop D because I can tune to that easily by ear :)

Also, these are all the parts (i think) but sometimes there's a slight change to the
parts, please figure them out yourself, or improvise (Ruben does that to)

First Part: (Verse)

e-|--------------------------------------------------------------------------|
B-|--------------------------------------------------------------------------|
G-|-*------/7--5--/8-8-8-8--7--5\-------/7--5--/8-8-8-8--7\----------------*-|
D-|-*--0---/7--5--/8-8-8-8--7--5\---0---/7--5--/8-8-8-8--7\----------------*-|
A-|----0---/5--3--/6-6-6-6--5--3\---0---/5--3--/6-6-6-6--5\------------------|
D-|----0---/0--0--/0-0-0-0--0--0\---0---/0--0--/0-0-0-0--0\------------------|

Second Part: (Chorus)

e-|-----------------------------------------------------------------------------|
B-|-------------------|---------------------------------------------------------|
G-|-*---------------*-|---------------------------------------------------------|
D-|-*-3--1h3--3--3--*-|--3--1h3--3--3---1h3--3--3---1\3--3--3-------------------|
A-|---3--1h3--3--3----|--3--1h3--3--3---1h3--3--3---1\3--3--3-------------------|
D-|---3--1h3--3--3----|--3--1h3--3--3---1h3--3--3---1\3--3--3-------------------|

Third Part: (Sometimes after Chorus)

e-|-------------------------------------------------------------------------------|
B-|-------------------------------------------------------------------------------|
G-|-*---------------------------------------------------------------------------*-|
D-|-*----3--------x3-3--x3-3--x3-3--x3-3--------3--------x1-1--x1-1--x1-1--x1-1-*-|
A-|--1h3---3-1-3--x3-3--x3-3--x3-3--x3-3--3-1h3---3-1-3--x1-1--x1-1--x1-1--x1-1---|
D-|---------------x3-3--x3-3--x3-3--x3-3-----------------x1-1--x1-1--x1-1--x1-1---|

Fourth Part: (Sometimes played after part three, plz improvise on this)

e-|------------------------------------------------|
B-|------------------------------------------------|
G-|------------------------------------------------|
D-|--x2-2-2-2-/3-3-3-3----x4-4-4-4-/5-5-5-5---(4)--|
A-|--x2-2-2-2-/3-3-3-3----x4-4-4-4-/5-5-5-5---(4)--|
D-|--x2-2-2-2-/3-3-3-3----x4-4-4-4-/5-5-5-5--------|

Fifth Part: (Outro/Last Chorus, played after the break, again: improvise)
 1		    2
e-|--------------------------------------------------|--------------|------------|
B-|--------------------------------------------------|--------------|------------|
G-|--------------------------------------------------|--------------|------------|
D-|--1h3-3-3-3p1--------1----x3-x3-x3-x3------3------|-x3-x3-x3-x3--|-1h3-1h3--*-|
A-|--------------1h3--3--1-3-x3-x3-x3-x3--1h3--3-1-3-|-x3-x3-x3-x3--|-1h3-1h3--*-|
D-|--------------------------x3-x3-x3-x3-------------|-x3-x3-x3-x3--|-1h3-1h3----|


Enjoy,
Triggerfinger Rulez,
First tab (but pretty sure)
Drop D instead of C
Improvise!
Tap to rate this tab
 
# A B C D E F G H I J K L M N O P Q R S T U V W X Y Z