Triggerfinger - No Teasin Around tab

No Teasin' Around
Triggerfinger
What Grabs Ya, 2008


Verse #1
              E       C#7      F#              B7     
e|--------------------------------------------------|
B|---------------x-----2--x---------x---------------|
G|------------1~-x-----4~-x---------x------------2--|
D|------------2~-x-----3~-x------4--x-----------1---|
A|---------------x-----4~-x-----4---x----------2----|
E|---------------------------0-2--------------------|
I don't want no    no, nobody         teasin' 'round

         E      Esus4    A 
e|--------------------------------------------------|
B|--------------------------------------------------|
G|-2-----1------1h2p1----2--------2---2-------------|
D|-1--x--2------2-----2--2------2------2------------|
A|-2--x--2---------------0--3-4---------0-----------|
E|--------------------------------------------------|
         with me

               E          C#7     F#          F#     
e|--------------------------------------------------|
B|------x------0--x--------2--x---2--2--x--------x--|
G|------x------1--x--------4--x-x-3--3--x-----3--x--|
D|------x------2--x--------3--x-x----4--x--x--4--x--|
A|------x------2--x--------4--x------4--x--x--4--x--|
E|-------------0---------------------2--------2-----|
  I don't want no, no, nobody             teasin' 

                      B              Bb 
e|--------------------------------------------------|
B|-2-----x-2----------------------------------------|
G|-3-----x-3-3-------------------------------7------|
D|-4-----x---4----------------------------8--8------|
A|-4-----x---4--------9--9-9--9-9--9-8--8-8--8-8--8-|
E|-2------------------7--7-7--7-7--7-6--6-6--6-6--8-|
   'round      with me 

  B          C#        B A     E
e|--------------------------------------------------|
B|------------------------------0-------------x-----|
G|----x-----------------------x-1-------------x-----|
D|-9-x------------x-x-------7-x-2-------------x-----|
A|-9-x--9--9/11\9-x-x--9-7--7---2-------------x-----|
E|-7----7--7/9\-7------7-5--5---0-------------------|
                                I may be weak 

   E           E7
e|---0------------0-----------------0---------------|
B|-0-0-0--x----3--3--3---------x--x-3-3--3-3-3--3---|
G|-1-1-1--x----1--1--1---------x--x-1-1--1-1-1--1-x-|
D|-2-2-2--x----2--2--2---------x--x-2-2--2-2-2--2-x-|
A|-2---2--x----2-----2---------x------2--2-2-2--2---|
E|-0---0-------0-----0----------------0--0-0-0--0---|
            I not may be strong            I may be 

   A            /c  /c# /e             Am
e|-------------------------------------5-5-5-5-5-5--|
B|-2----2-2----2---2---2---2---2--2----5-5-5-5-5-5--|
G|-2--2-2-2--2-2-2-2-2-2-2-2---2--2-2--5-5-5-5-5-5--|
D|-2--2---2--2---2---2---2---2-2--2-2--7---7---7----|
A|-0------0--0---3---4-------3----0-0--x---x---x----|
E|-------------------------------------5---5---5----|
   right                  and I may be   wrong

   Am9                      E              C#7    F#      B7
e|h7-7-7-7-7-7-7-7-7-7p5-5-|
B|-5-5-5-5-5-5-5-5-5---5-5-|
G|-5-5-5-5-5-5-5-5-5---5-5-|
D|-7---7---7---7---7---7---|
A|-x---x---x---x---x---x---|
E|-5---5---5---5---5---5---|
              I don't want no, no, no, no, nobody teasin' around with me
   E  /g   /g#/b     A  /c   /c#          /c  E
e|--------------------------------------------------|
B|--------------------------------------------------|
G|---------------------2---2---2---2---2------1-----|
D|---2---2---2---2---2-2-2-2---2---2---2-2-2--2-----|
A|-2-2-2-2---2-2---2-0---3--3h4-3h4-3h4----3--2-----|
E|-0---3--3h4------3--------------------------0-----|


Verse #2
  1:21        E       C#7         F#      B7
e|--------------------------------------------------|
B|------------------x--------2~---------2-------0---|
G|---------------1--x------4----------3-------2-----|
D|--------------2---x----3----------4-------1-------|
A|-------------2----x--4----------4-------2---------|
E|------------0-------------------2-----------------|
I've been in love      lately            I'm not a fool

   E        Esus4 A     Asus4
e|--------------------------------------------------|
B|-------0~-------------2h3-2-----------------------|
G|-----1----1h2-1-----2-------2---------------------|
D|---2--------------2-----------2----x--------------|
A|----------------0------------------x--------------|
E|-0------------------------------0--x--------------|
  you see                                 You left...

            E      C#7            F#           B      Bb B  C# B A 
You left my heart, you're breaking with my own memory
E                E7                       
So if you want it, you want me back, 
A                                  Am             Am9
I'll give you lovin', sweet lovin' like you never had
             E             C#7      F#      B7          E    A    E
I don't want no, no, no, no, nobody teasin' around with me


Interlude
  2:40                E                     C#7
e|---------9~---12~---0------0-0-0-0-----0----------|
B|---12~-x----x--------0-----0-0-0-0-----0--------2-|
G|--x----x----x---------1------------1---1------4---|
D|-------x----x----------2--------------------3-----|
A|------------------------2------------2----4-------|
E|-------------------------0------------------------|
                      F#                  B7
e|--------------------------------------------------|
B|-----------2-------------------2---------------0--|
G|-4-----------4---------------3---3---------2------|
D|---3---3-------3------4----4---------4-------1----|
A|-----4---4-------4------4----------4----2---------|
E|--------------------2---2-------------------------|
           E                 A
e|-2------------------------------------------------|
B|---0----------------------------------------------|
G|-------2------------------------------------------|
D|-----1--------------2---2---2-2---2---2----2----2-|
A|---------2-2--2-----2-2-----0---3--3h4--3h4--3h4--|
E|---------0---3--3h4-------3-----------------------|
                                    E                             
e|-------------9--9-9-9--12-12-12\-----0-0-0-0------|
B|------x---12~------------------------0-0-0-0------|
G|------x--------------------------------------1----|
D|------x-------------------------------------------|
A|-3----x---------------------------2------------2--|
E|---0------------------------------0---------------|
     C#7                    F#
e|-0------------------------------------------------|
B|-0-------2----------2-----------2---2-------------|
G|-1---4-----4---4-----4----3---3-3-3-3---3-3--3----|
D|-------3-----3--------3---4-4-4-4-4-4-4-4-4--4-4/-|
A|---4-------------4-----4--4-4-4---4---4-4-4--4-4/-|
E|--------------------------2---2-------2---2----2/-|
   B             Bb                         B
e|--------------------------------------------------|
B|-------------------------------6-6-6-6-6----x-x---|
G|-----------------------------7-7-7-7-7-7--8-x-x---|
D|------9-9-------------8--8-8-8-8-8-8-8-8--9-x-x---|
A|-9--9-9-9--9-9-8--8-8-8--8-8-8-8-8-8-8-8--9-x-x---|
E|-7--7-7-7--7-7-6--6-6-6--6-6-6-6-6-6-6-6--7-------|
   B      C#      A      E
e|-----------------------0-|
B|---x---------x---------0-|
G|-7-x--8-10\8-x--6-6-6--1-|
D|-9-x--9/11\9-x--7-7-7--2-|
A|-9-x--9/11\9-x--7---7--2-|
E|-7----7/9\-7----5---5--0-|


Verse #3
  E                  E7 
I may be blue, and I may be blind
          A                  Am                              Am9
But I've got a guitar and nothing you're gonna do with my mind
E                             C#7    F#      B7           E  A  E
I don't want no no, no no, nobody teasin' around with me
         E    C#7     F#       B7          
I don't want no, no teasin' 'round with me
    E       C#7      F#       B7     E A E
I don't want nobody teasin' around




I don't want no, nobody teasin' 'round with me
I don't want no, no nobody, teasin' 'round with me
I may be weak, I not may be strong
I may be right, and I may be wrong
I don't want no, no, no, no, no, no, nobody teasin' around with me
             
I've been in love lately, I'm not a fool, you see
You left my heart, you're breaking with my own memory
So if you want it, you want me back
I'll give you lovin', sweet lovin' like you never had
I don't want no, no, no, no, nobody teasin' around with me

-Interlude- 

I may be blue, and I may be blind
But I've got a guitar and nothing you're gonna do with my mind
I don't want no no, no no, nobody teasin' around with me
I don't want no, no teasin' 'round with me
I don't want nobody teasin' around
Tap to rate this tab
 
# A B C D E F G H I J K L M N O P Q R S T U V W X Y Z