Triggerfinger - Short Term Memory Love tab

-----------------------------------------------------------------------------
                            short term memory love - triggerfinger
-----------------------------------------------------------------------------
Tabbed by:jeroen scheirs 
Email:jeroenscheirs@hotmail.com
sorry NO SOLO 

Tuning:standard   (EADGBE)
capo on 2th fret


intro (x2)
e|--------------------------------------------------------------------------|
B|--------------------------------------------------------------------------|
G|--------------------------------------------------------------------------|
D|9-9-9-12b-12-12-7-9-7-6-9-9-9-12-12-12-7-9-7-6----------------------------|
A|0-0-0-000-00-00-0-0-0-0-0-0-0-00-00-00-0-0-0-0----------------------------|
E|--------------------------------------------------------------------------|

(palmmuted)
e|--------------------------------------------------------------------------|
B|--------------------------------------------------------------------------|
G|--------------------------------------------------------------------------|
D|9b-9b-9b-9b-9b-9b-9b-9b-9b-9b-9b-9b-9b-9b-9b-9b-9b-9b-9b-9b-9b-9b-9b-9b-9b|
A|00-00-00-00-00-00-00-00-00-00-00-00-00-00-00-00-00-00-00-00-00-00-00-00-00|
E|00-00-00-00-00-00-00-00-00-00-00-00-00-00-00-00-00-00-00-00-00-00-00-00-00|

e|3-3-2-2-------------------------------------------------------------------|
B|3-3-3-3-------------------------------------------------------------------|
G|0-0-2-2-------------------------------------------------------------------|
D|0-0-0-0-------------------------------------------------------------------|
A|2-2-0-0-------------------------------------------------------------------|
E|3-3-0-0-------------------------------------------------------------------|

(palmmuted)
e|--------------------------------------------------------------------------|
B|--------------------------------------------------------------------------|
G|--------------------------------------------------------------------------|
D|9b-9b-9b-9b-9b-9b-9b-9b-9b-9b-9b-9b-9b-9b-9b-9b-9b-9b-9b-9b-9b-9b-9b-9b-9b|
A|00-00-00-00-00-00-00-00-00-00-00-00-00-00-00-00-00-00-00-00-00-00-00-00-00|
E|00-00-00-00-00-00-00-00-00-00-00-00-00-00-00-00-00-00-00-00-00-00-00-00-00|

e|3-3-2-2-------------------------------------------------------------------|
B|3-3-3-3-------------------------------------------------------------------|
G|0-0-2-2-------------------------------------------------------------------|
D|0-0-0-0-------------------------------------------------------------------|
A|2-2-0-0-------------------------------------------------------------------|
E|3-3-0-0-------------------------------------------------------------------|

chorus (x4)
e|4-4-4-4-4-4-4-4-7-7-7-7-7-7-7-7-12-12-12-12-12-12-12-12-3-3-2-2-----------|
B|4-4-4-4-4-4-4-4-7-7-7-7-7-7-7-7-12-12-12-12-12-12-12-12-3-3-3-3-----------|
G|4-4-4-4-4-4-4-4-7-7-7-7-7-7-7-7-12-12-12-12-12-12-12-12-0-0-2-2-----------|
D|6-6-6-6-6-6-6-6-9-9-9-9-9-9-9-9-14-14-14-14-14-14-14-14-0-0-0-0-----------|
A|6-6-6-6-6-6-6-6-9-9-9-9-9-9-9-9-14-14-14-14-14-14-14-14-2-2-0-0-----------|
E|4-4-4-4-4-4-4-4-7-7-7-7-7-7-7-7-12-12-12-12-12-12-12-12-3-3-0-0-----------|

(x9)
e|--------------------------------------------------------------------------|
B|--------------------------------------------------------------------------|
G|--------------------------------------------------------------------------|
D|--9-9-9-12b-12-12-7-9-7-6-------------------------------------------------|
A|--0-0-0-000-00-00-0-0-0-0-------------------------------------------------|
E|--------------------------------------------------------------------------|

chorus (x5)
e|4-4-4-4-4-4-4-4-7-7-7-7-7-7-7-7-12-12-12-12-12-12-12-12-3-3-2-2-----------|
B|4-4-4-4-4-4-4-4-7-7-7-7-7-7-7-7-12-12-12-12-12-12-12-12-3-3-3-3-----------|
G|4-4-4-4-4-4-4-4-7-7-7-7-7-7-7-7-12-12-12-12-12-12-12-12-0-0-2-2-----------|
D|6-6-6-6-6-6-6-6-9-9-9-9-9-9-9-9-14-14-14-14-14-14-14-14-0-0-0-0-----------|
A|6-6-6-6-6-6-6-6-9-9-9-9-9-9-9-9-14-14-14-14-14-14-14-14-2-2-0-0-----------|
E|4-4-4-4-4-4-4-4-7-7-7-7-7-7-7-7-12-12-12-12-12-12-12-12-3-3-0-0-----------|

(palmmuted)
e|--------------------------------------------------------------------------|
B|--------------------------------------------------------------------------|
G|--------------------------------------------------------------------------|
D|9b-9b-9b-9b-9b-9b-9b-9b-9b-9b-9b-9b-9b-9b-9b-9b-9b-9b-9b-9b-9b-9b-9b-9b-9b|
A|00-00-00-00-00-00-00-00-00-00-00-00-00-00-00-00-00-00-00-00-00-00-00-00-00|
E|00-00-00-00-00-00-00-00-00-00-00-00-00-00-00-00-00-00-00-00-00-00-00-00-00|

(x4)
e|--------------------------------------------------------------------------|
B|--------------------------------------------------------------------------|
G|--------------------------------------------------------------------------|
D|--9-9-9-12b-12-12-7-9-7-6-------------------------------------------------|
A|--0-0-0-000-00-00-0-0-0-0-------------------------------------------------|
E|--------------------------------------------------------------------------|

(palmmuted)
e|--------------------------------------------------------------------------|
B|--------------------------------------------------------------------------|
G|--------------------------------------------------------------------------|
D|9b-9b-9b-9b-9b-9b-9b-9b-9b-9b-9b-9b-9b-9b-9b-9b-9b-9b-9b-9b-9b-9b-9b-9b-9b|
A|00-00-00-00-00-00-00-00-00-00-00-00-00-00-00-00-00-00-00-00-00-00-00-00-00|
E|00-00-00-00-00-00-00-00-00-00-00-00-00-00-00-00-00-00-00-00-00-00-00-00-00|

e|-0
B|-0
G|-0
D|-9b
A|-0
E|-0

e|-0
B|-0
G|-0
D|-14b
A|-0
E|-0

e|-0
B|-0
G|-0
D|-17b
A|-0
E|-0

e|-7-7-7
B|-7-7-7
G|-7-7-7
D|-9-9-9
A|-9-9-9
E|-7-7-7



************************************

| /   slide up
| \   slide down
| h   hammer-on
| p   pull-off
| ~   vibrato
| +   harmonic
| x   Mute note
| b   Bend
| pb  Pre-bend
| br  Bend release
| pbr Pre-bend release
| brb Bend release bend

************************************
Tap to rate this tab
 
# A B C D E F G H I J K L M N O P Q R S T U V W X Y Z