Song name
# A B C D E F G H I J K L M N O P Q R S T U V W X Y Z

Triggerfinger - Let It Ride tab

Artist: Triggerfinger
Song: Let it ride
Album: All this dancin' around


Tuning: drop D


Intro
E|---------------------------------------------------------------|
B|---------------------------------------------------------------|
G|---------------------------------------------------------------|
D|---------------------------------------------------------------|
A|--3-5-5-5-3-5-5-5-5-3-5-5-5------------------------------------|
D|--0-0-0-0-0-0-0-0-0-0-0-0-0-3-5-5-5----------------------------|

Verse

Never thougt Id be your back door man
E|--2~~----------------------------------------------------------|
B|--3~~----------------------------------------------------------|
G|--2~~----------------------------------------------------------|
D|---------------------------------------------------------------|
A|---------------------------------------------------------------|
D|--------3-5-5-5------------------------------------------------| 4x

The perfect balance baby
E|---------------------------------------------------------------|
B|---------------------------------------------------------------|
G|---------------------------------------------------------------|
D|--3-3-3-3-3-3-/-5-5--------------------------------------------|
A|--3-3-3-3-3-3-/-5-5--------------------------------------------|
D|--3-3-3-3-3-3-/-5-5--------------------------------------------| 2x

A tempting hint at something i might find
E|---------------------------------------------------------------|
B|---------------------------------------------------------------|
G|---------------------------------------------------------------|
D|---------------------------------------------------------------|
A|--3-5-5-5-3-5-5-5-5-3-5-5-5------------------------------------|
D|--0-0-0-0-0-0-0-0-0-0-0-0-0-3-5-5-5----------------------------| 6x

The perfect moment baby
E|---------------------------------------------------------------|
B|---------------------------------------------------------------|
G|---------------------------------------------------------------|
D|--3-3-3-3-3-3-/-5-5--------------------------------------------|
A|--3-3-3-3-3-3-/-5-5--------------------------------------------|
D|--3-3-3-3-3-3-/-5-5--------------------------------------------| 2x

Will flood the gates with your mystery
E|---------------------------------------------------------------|
B|---------------------------------------------------------------|
G|---------------------------------------------------------------|
D|---------------------------------------------------------------|
A|--3-5-5-5-3-5-5-5-5-3-5-5-5------------------------------------|
D|--0-0-0-0-0-0-0-0-0-0-0-0-0-3-5-5-5----------------------------| 2x

Chorus
E|--3-----6-----10-----9--8--------------------------------------|
B|--3-----6-----10-----9--8--------------------------------------|
G|--4-----7-----11-----10-9--------------------------------------|
D|--5-----8-----12-----11-10-------------------------------------|
A|--5-----8-----12-----11-10-------------------------------------|
D|---------------------------------------------------------------| 2x

Back to the intro
E|---------------------------------------------------------------|
B|---------------------------------------------------------------|
G|---------------------------------------------------------------|
D|---------------------------------------------------------------|
A|--3-5-5-5-3-5-5-5-5-3-5-5-5------------------------------------|
D|--0-0-0-0-0-0-0-0-0-0-0-0-0-3-5-5-5----------------------------|

Wait until the next part starts

The perfect balance baby
E|---------------------------------------------------------------|
B|---------------------------------------------------------------|
G|---------------------------------------------------------------|
D|--3-3-3-3-3-3-/-5-5--------------------------------------------|
A|--3-3-3-3-3-3-/-5-5--------------------------------------------|
D|--3-3-3-3-3-3-/-5-5--------------------------------------------| 2x

Youre still my favorite mental rodeo
E|---------------------------------------------------------------|
B|---------------------------------------------------------------|
G|---------------------------------------------------------------|
D|---------------------------------------------------------------|
A|--3-5-5-5-3-5-5-5-5-3-5-5-5------------------------------------|
D|--0-0-0-0-0-0-0-0-0-0-0-0-0-3-5-5-5----------------------------| 2x

Chorus
E|--3-----6-----10-----9--8--------------------------------------|
B|--3-----6-----10-----9--8--------------------------------------|
G|--4-----7-----11-----10-9--------------------------------------|
D|--5-----8-----12-----11-10-------------------------------------|
A|--5-----8-----12-----11-10-------------------------------------|
D|---------------------------------------------------------------| 2x


Solo
E|----------------10---9--8--------------------------------------|
B|--10---12---13--10---9--8--------------------------------------|
G|--11---13---14--11---10-9--------------------------------------|
D|--12---14---15--12---11-10-------------------------------------|
A|----------------12---11-10-------------------------------------|
D|---------------------------------------------------------------|

Outro
E|----------------------------------------------------------------------|
B|----------------------------------------------------------------------|
G|----------------------------------------------------------------------|
D|----------------------------------------------------------------------|
A|--3-5-5-5---------3-5-5-5---------3-5-5-5---------3-5-5-5-------------|
D|--0-0-0-0-3--5--5-0-0-0-0-3--5--5-0-0-0-0-3--5--5-0-0-0-0-3--5--5-/-\-| 
Tap to rate this tab
# A B C D E F G H I J K L M N O P Q R S T U V W X Y Z