Song name
# A B C D E F G H I J K L M N O P Q R S T U V W X Y Z

Triggerfinger - Let It Ride tab

Triggerfinger - Let It Ride

Tabbed By: Maickel (The Shabby Harry's)
Tuning: drop D

Intro
E|---------------------------------------------------------------|
B|---------------------------------------------------------------|
G|---------------------------------------------------------------|
D|---------------------------------------------------------------|
A|--3-5-5-5-3-5-5-5-5-3-5-5-5------------------------------------|
D|--0-0-0-0-0-0-0-0-0-0-0-0-0-3-5-5-5----------------------------|

Verse

Never thought I'd be your back door man
E|--2~~----------------------------------------------------------|
B|--3~~----------------------------------------------------------|
G|--2~~----------------------------------------------------------|
D|---------------------------------------------------------------|
A|---------------------------------------------------------------|
D|--------3-5-5-5------------------------------------------------| 4x

The perfect balance baby
E|---------------------------------------------------------------|
B|---------------------------------------------------------------|
G|---------------------------------------------------------------|
D|--3-3-3-3-3-3-/-6-6--------------------------------------------|
A|--3-3-3-3-3-3-/-6-6--------------------------------------------|
D|--3-3-3-3-3-3-/-6-6--------------------------------------------| 2x

A tempting hint at something i might find
E|---------------------------------------------------------------|
B|---------------------------------------------------------------|
G|---------------------------------------------------------------|
D|---------------------------------------------------------------|
A|--3-5-5-5-3-5-5-5-5-3-5-5-5------------------------------------|
D|--0-0-0-0-0-0-0-0-0-0-0-0-0-3-5-5-5----------------------------| 6x

The perfect moment baby
E|---------------------------------------------------------------|
B|---------------------------------------------------------------|
G|---------------------------------------------------------------|
D|--3-3-3-3-3-3-/-6-6--------------------------------------------|
A|--3-3-3-3-3-3-/-6-6--------------------------------------------|
D|--3-3-3-3-3-3-/-6-6--------------------------------------------| 2x

Will flood the gates with your mystery
E|---------------------------------------------------------------|
B|---------------------------------------------------------------|
G|---------------------------------------------------------------|
D|---------------------------------------------------------------|
A|--3-5-5-5-3-5-5-5-5-3-5-5-5------------------------------------|
D|--0-0-0-0-0-0-0-0-0-0-0-0-0-3-5-5-5----------------------------| 2x

Chorus
E|---------------------------------------------------------------|
B|--3-----6-----10-----9--8--------------------------------------|
G|--x-----x-----x------x--x--------------------------------------|
D|--5-----8-----12-----11-10-------------------------------------|
A|--x-----x-----x------x--x--------------------------------------|
D|--5-----8-----12-----11-10-------------------------------------| 2x

Back to the intro
E|---------------------------------------------------------------|
B|---------------------------------------------------------------|
G|---------------------------------------------------------------|
D|---------------------------------------------------------------|
A|--3-5-5-5-3-5-5-5-5-3-5-5-5------------------------------------|
D|--0-0-0-0-0-0-0-0-0-0-0-0-0-3-5-5-5----------------------------|

Wait until the next part starts

The perfect balance baby
E|---------------------------------------------------------------|
B|---------------------------------------------------------------|
G|---------------------------------------------------------------|
D|--3-3-3-3-3-3-/-6-6--------------------------------------------|
A|--3-3-3-3-3-3-/-6-6--------------------------------------------|
D|--3-3-3-3-3-3-/-6-6--------------------------------------------| 2x

You're still my favorite mental rodeo
E|---------------------------------------------------------------|
B|---------------------------------------------------------------|
G|---------------------------------------------------------------|
D|---------------------------------------------------------------|
A|--3-5-5-5-3-5-5-5-5-3-5-5-5------------------------------------|
D|--0-0-0-0-0-0-0-0-0-0-0-0-0-3-5-5-5----------------------------| 2x

Chorus
E|---------------------------------------------------------------|
B|--3-----6-----10-----9--8--------------------------------------|
G|--x-----x-----x------x--x--------------------------------------|
D|--5-----8-----12-----11-10-------------------------------------|
A|--x-----x-----x------x--x--------------------------------------|
D|--5-----8-----12-----11-10-------------------------------------| 2x

Solo
E|---------------------------------------------------------------|
B|---------------------------------------------------------------|
G|--12---14---15--17---19-18-------------------------------------|
D|---------------------------------------------------------------|
A|---------------------------------------------------------------|
D|---------------------------------------------------------------|

Outro
E|------------------------|-------------|
B|---------3x-------------|-----4x------|
G|------------------------|-------------|
D|------------------------|-------------|
A|--3-5-5-3-0-------------|-3-5-5-5-5-5-|
D|------------5-3-3-3-3-3-|-0-0-0-0-0-0-|
Tap to rate this tab
 
# A B C D E F G H I J K L M N O P Q R S T U V W X Y Z