Triggerfinger - Perfect Match tab

-------------------------------------------------------------------------------
                             PERFECT MATCH - Triggerfinger
-------------------------------------------------------------------------------
Tabbed by: RomStapleton (Romain Q.)
E-mail: -

Tuning: Drop D (DADGBe)

From the new album 'By Absence of the Sun'. Enjoy!



Riff 1 :

e|---------------------------------------|
B|-------------------------3-3-3-3-3-----|
G|---10-11----10-11--------4-4-5-5-4-----| x4
D|---------------------------------------|
A|---8--9-----8--9-----------------------|
D|---------0---------12\5--5-5-5-5-5-----|

Riff 2 (palm-muted) :

e|---------------------------------------|
B|---------------------------------------|
G|---------------------------------------|
D|---------------------------------------|
A|-----5-5-x-5-3~------------------------|
D|-----------------3-5-5-3-5-7-3~~-------|

Riff 3 :

e|---------------------------------------|
B|---------------------------------------|
G|---------------------------------------|
D|---------------------------------------|
A|-----5-5-3-5-3~------------------------|
E|----------------3-5-5-3-5-7-3~---------|


Break :

e|-----------------------------------------------------------------------------|
B|-----------------------------------------------------------------------------|
G|-----------------------------------------------------------------------------|
D|----12-12--10~~---0-3-3-3-3-3-3-3-3-3-3-3---12-12-10~~----0-3-3-3-3-3-5-3-0--|
A|----12-12--10~~---0-3-3-3-3-3-3-3-3-3-3-3---12-12-10~~----0-3-3-3-3-3-5-3-0--|
E|----12-12--10~~---0-3-3-3-3-3-3-3-3-3-3-3---12-12-10~~----0-3-3-3-3-3-5-3-0--|


e|-----------------------------------------------------------------------------|
B|-----------------------------------------------------------------------------|
G|-----------------------------------------------------------------------------|
D|----12-12--10~~---0-3-3-3-3-3-3-3-3-3-3-3---12-12-10~~----0-3-3-3-3-5-0-3-5~-|
A|----12-12--10~~---0-3-3-3-3-3-3-3-3-3-3-3---12-12-10~~----0-3-3-3-3-5-0-3-5~-|
D|----12-12--10~~---0-3-3-3-3-3-3-3-3-3-3-3---12-12-10~~----0-3-3-3-3-5-0-3-5~-|

Solo :

e|----------------------------------------------------|
B|----------------------------------------------------|
G|---12/14-10~~--10/12-------10-----------------------|
D|---------------------12~~-----9~~---9\7-------------|
A|----------------------------------------8~~---------|
D|----------------------------------------------------|

e|----------------------------------------------------|
B|----------------------------------------------------|
G|---12/14-10~~--10/12-------10-------------10~~------|
D|---------------------12~~-----9~~---10h12-----------|
A|----------------------------------------------------|
D|----------------------------------------------------|

e|----------------------------------------------------|
B|----------------------------------------------------|
G|---12/14-10~~--10/12-------10-----------------------|
D|---------------------12~~-----9~~---9\7-------------|
A|----------------------------------------8~~---------|
D|----------------------------------------------------|

e|----------------------------------------------------|
B|----------------------------------------------------|
G|---12/14-10~~--10/12----------------------10~~------|
D|---------------------10-10-10-10-10-10h12-----------|
A|----------------------------------------------------|
D|----------------------------------------------------|


Structure :

Intro - Riff 1 (x4)
Verse - Riff 2 (x3) + Riff 3 (x1)
Verse - Same
Chorus - Riff 1(x4)
Verse - Riff 2 (x3) + Riff 3 (x1)
Verse - Same
Chorus - Riff 1(x4)
Break
Solo
Chorus - Riff 1(x8)

************************************

| /   slide up
| \   slide down
| h   hammer-on
| p   pull-off
| ~   vibrato
| +   harmonic
| x   Mute note
| b   Bend
| pb  Pre-bend
| br  Bend release
| pbr Pre-bend release
| brb Bend release bend

************************************
Tap to rate this tab
 
# A B C D E F G H I J K L M N O P Q R S T U V W X Y Z