Guitaretab - guitar tabs
Song name
# A B C D E F G H I J K L M N O P Q R S T U V W X Y Z

Triggerfinger - Lil Teaser tab

Artist: Triggerfinger
Song: Lil' Teaser (Outro)
Album: Triggerfinger (2004)
Music: Ruben Block (Guitar + Vocals), 
Mario Goosens (Drums), Msr. Paul (Bass)
Tabbed by: Vincent Herremans, date: 09/03/05 (This is my first tab)
Corrections: vh0147@hotmail.com
Tuning: Standard => EADGBe
Notes: I would appreciate it if someone could help me find the complete song
Effects used: I use a 'MS crunch' (light crunch distortion) on BOSS GT-6.
/: slidt right
\: Slide Left
b: Bend 
r: Rewind
*: Mute
^: Upstroke
Outro
E|------0-----0-------0---0----0------------------------------------------|
B|--------5------5\---------3----3---3---5-----5-----5--5----5-----5------|
G|--/4------4-------4\----2---2----2-------6-----6--------5----5----------|
D|---------------------------------------7---7-----7----7---7----7--------|
A|------------------------------------------------------------------------|
E|------------------------------------------------------------------------|
[ Tab from: http://www.guitaretab.com/t/triggerfinger/57684.html ]
S L O W E R     T E M P O
E|------0-----0-------0---0----0------------------------------------------|
B|--------5------5\---------3----3---3---5-----5-----5--5----5-----5------|
G|--/4------4-------4\----2---2----2-------6-----6--------5----5----------|
D|---------------------------------------7---7-----7----7---7----7--------|
A|------------------------------------------------------------------------|
E|------------------------------------------------------------------------|

			       Em 	        ^ (Fast & Short Upstroke)		
E|-------------------0--------0~----------0---0*--------------------------|
B|------------------0---------0~----------0---0*--------------------------|
G|-----------------0----------0~----------0---0*--------------------------|
D|----------------2-----------2~----------2---2*--------------------------|
A|---------------2------------2~----------2---2*--------------------------|
E|-3bró(Bass)---0-------------0~----------0---0*--------------------------|
Related for Lil Teaser tab