Song name
# A B C D E F G H I J K L M N O P Q R S T U V W X Y Z

Trigun - Ht tab

Tsuneo Imahori - H.T
Theme music from "Trigun"
CD: "Trigun: The First Donuts" track #12

Tuning: Guitar standard

I credited the artist as "Trigun" even though that's the name of the TV show it's from, 
UG doesn't have Tsuneo Imahori in the database. Too bad.

key
* : pinch harmonic
. : palm mute
~ : vibrato
p : pull-off
h : hammer-on
\ : slide
^ : bend


SECTION A: 0:00 - 0:25

SECTION A: PART A
E|--------------------------------------------------------------------|
B|--------------------------------------------------------------------|
G|--------------------------------------------------------------------|
D|--------------------------------------------------------5---5-------|
A|--------------3*------------3~~~--------------3*----3*--3---3-------|
E|0-3-4-5-3-3-5-----5-3-2-3-5-----0-3-4-5-3-3-5-----5-----------------|
  . . . . . . .     . . . . .     . . . . . . .     .

SECTION A: PART B
|--------------------------------------------------------------------|
|--------------------------------------------------------------------|
|--------------------------------------------------------------------|
|--------------------------------------------------------------------|
|--------------3*------------3~~~--------------3*----3*--5-3---------|
|0-3-4-5-3-3-5-----5-3-2-3-5-----0-3-4-5-3-3-5-----5---------5-------|
  . . . . . . .     . . . . .    . . . . . . .     .

The riffs for Section A are played in this order: A-B-A-A-B


SECTION B: 0:25 - 0:35

|------------------------------------------------------|
|------------------------------------------------------|
|2---5-----7-------7---5-----2-------2---5-----7-------|
|2---5-----7-------7---5-----2-------2---5-----7-------|
|0---3-----5-------5---3-----0-------0---3-----5-------|
|------------------------------------------------------|

------------------------------------|
-5p3p0h5p3p0-------1~---------------|
-------------0-1-2---2-0---2~~~-----|
------------------------------------|
------------------------------------|
------------------------------------|


SECTION C: 0:35 - 0:56

SECTION C: PART A
|-------------------------------------------------------------------|
|-------------------------------------------------------------------|
|-----------------7-5-----------------------------------------------|
|-5---3-4-5---3-4-----7-------3-4-5---3-4-5---3-4-7/6---7/6---------|
|-5---3-4-5---3-4-------5~~~0-3-4-5---3-4-5---3-4-5/4---5/4---------|
|-------------------------------------------------------------------| x3

SECTION C: PART B
|----------------------------------|
|----------------------------------|
|-----------------9-7--------------|
|-7---5-6-7---5-6-----9------------|
|-7---5-6-7---5-7-------7~~~-------|
|----------------------------------|


SECTION D: 0:52 - 0:56
|----------------------------------------------------------------|
|15^~~12---------------------------------------------------------|
|--------14-12-14^~~12-------------------------------------------|
|----------------------14-13-12-------14-13~~~14-13~~~14-13~~~14-|
|-------------------------------14-12----------------------------|
|----------------------------------------------------------------|


SECTION A: 0:56 - 1:17

The same riffs from Section A (at the beginning of this tab) played in this order: A-B-A-B


SECTION B: 1:17 - 1:26

Repeat Section B. End on open low E.

ta-da!
Tap to rate this tab
# A B C D E F G H I J K L M N O P Q R S T U V W X Y Z