Song name
# A B C D E F G H I J K L M N O P Q R S T U V W X Y Z

Trigun - Never Could Have Been Worse tab

INTRO

d-0-3/5-5/7-0-2/3-3\0/12--/12----12---7/10\7-0-3/5---0-3/5-5/7-0-3\0/12-|
b-0-3/5-5/7-0-2/3-3\0/12-----12----12-7/10\7-0-3/5---0-3/5-5/7-0-3\0/12-|
g-0-3/5-5/7-0-2/3-3\0/12-------12---127/10\7-0-3/5---0-3/5-5/7-0-3\0/12-|
D-0-3/5-5/7-0-2/3-3\0/12---------------------0-3/5---0-3/5-5/7-0-3\0/12-|
G-0-3/5-5/7-0-2/3-3\0/12---------------------0-3/5---0-3/5-5/7-0-3\0/12-|
D-0-3/5-5/7-0-2/3-3\0/12---------------------0-3/5---0-3/5-5/7-0-3\0/12-|

A:

d-0-3-0----------0-3-0-12-|
b-0-3-0----------0-3-0-12-|
g-0-3-0-12-12-12-0-3-0-12-|
D-0-3-0-12-12-12-0-3-0-12-|
G-0-3-0-12-12-12-0-3-0-12-|
D-0-3-0-12-12-12-0-3-0-12-|

B:

d-0-2/3-0-2/5 (optional 12-|
b-0-2/3-0-2/5--------------|
g-0-2/3-0-2/5--------------|
D-0-2/3-0-2/5--------------|
G-0-2/3-0-2/5--------------|
D-0-2/3-0-2/5--------------|

C:

d-7-7-5--7-7-5--0-3/5-5/7-0-3-0/12-|
b-7-7-5--7-7-5--0-3/5-5/7-0-3-0/12-|
g-7-7-5--7-7-5--0-3/5-5/7-0-3-0/12-|
D-7-7-5--7-7-5--0-3/5-5/7-0-3-0/12-|
G-7-7-5--7-7-5--0-3/5-5/7-0-3-0/12-|
D-7-7-5--7-7-5--0-3/5-5/7-0-3-0/12-|

D:

d-0-0---0-3-0-3-0-0-|
b-0-0---0-3-0-3-0-0-|
g-0-0---0-3-0-3-0-0-|
D-0-0---0-3-0-3-0-0-|
G-0-0---0-3-0-3-0-0-|
D-0-0---0-3-0-3-0-0-|

E:

d-7-6-5---7-6-5---7-6-5---7-6-5---7-6-5---7-6-5---7-6-5/15-|
b-7-6-5---7-6-5---7-6-5---7-6-5---7-6-5---7-6-5---7-6-5/15-|
g-7-6-5---7-6-5---7-6-5---7-6-5---7-6-5---7-6-5---7-6-5/15-|
D-7-6-5---7-6-5---7-6-5---7-6-5---7-6-5---7-6-5---7-6-5/15-|
G-7-6-5---7-6-5---7-6-5---7-6-5---7-6-5---7-6-5---7-6-5/15-|
D-----------------7-6-5---7-6-5-------------------7-6-5/15-|

TIMELINE:

Intro-| A: 2x-| pause-| A: 2x-| B: 14x (12fret on 11 and 13)-| C: 1x-| A: 1x-| D: 8x-| 
E: 1x-| 5fret for 16x-| intro-| B: fade out
Tap to rate this tab
 
# A B C D E F G H I J K L M N O P Q R S T U V W X Y Z