Song name
# A B C D E F G H I J K L M N O P Q R S T U V W X Y Z

Trigun - Colorless Sky tab

This is the first minute, so about half the song. I couldn't be sure that I got all the
chords right beyond this so I stuck with what I was more or less sure of. Also the first
song that I've done by ear, but I think this is about right.

imbyssal1@yahoo.com with comments or help

Standard Tuning
/=slide
h=hammer on
p=pull off
T=tremolo bar
()=ghost note
                                     (long slide)
e|----------------------------------------------------------10------|
B|------------------------------------------------------------------|
G|------------------------------------------------------------------|
D|------------------------------------------------------------------|
A|--7-----------6/7-5--6/7-5--6/7-5--3/---5-------3-----------------|
E|-----5--3-5------------------------------------------3--5---------|

                                                          T
e|----5/--7-----------------------------------------8-----7---------|
B|-7--5/--7--------------------------------/5-------------6---------|
G|-7--5/--7-------------------7---5-----------------------9---------|
D|-7--5/--7-----------------------------------------------9---------|
A|-7--------------------7/9-----------------------------------------|
E|------------------7-----------------------------------------------|

    T     T
e|--5---------------------------------------------------------|
B|--7-----3----5----------------------------------(10)--------|
G|--7-----4-----4-5--------------------------(7)--------------|
D|--5-----5--------4------0-----------------------------------|
A|--------3-----------------/5--(3)---------------------------|
E|--------------------5-8--------------3--5-------------------|
Tap to rate this tab
# A B C D E F G H I J K L M N O P Q R S T U V W X Y Z