Song name
# A B C D E F G H I J K L M N O P Q R S T U V W X Y Z

Trigun - Big Bluff tab

Help us improve GuitareTab! Take a short survey!
Tsuneo Imahori - Big Bluff
Standard tuning (eadgbe)

tabbed by FoZ

intro & main riff (v1)

e|---------------------------|
b|---------------------------|
g|---------------------------|
d|---------------------------|
a|-------7-------------------|
e|--7/10---------------------|x3

e|---------------------------|
b|---------------------------|
g|---------------------------|
d|---------------------------|
a|-----7---------------------|
e|--10---7-------------------|

main riff variation (v2)

e|---------------------------|
b|---------------------------|
g|---------------------------|
d|---------------------------|
a|-------7-------------------|
e|--7/10---------------------|x3

e|---------------------------|
b|---------------------------|
g|---------------------------|
d|---------------------------|
a|---------------------------|
e|--7------------------------|x3


play timing:

(0:12) v1
(0:24) v2  x8
(1:10) rest
(1:36) v1  x4
(2:00) rest
(2:11) v2
(3:12) v1  x4
(3:44) end
Related for Big Bluff tab