Song name
# A B C D E F G H I J K L M N O P Q R S T U V W X Y Z

Trigun - Never Could Have Been Worse tab

Tsuneo Imahori - Never Could Have Been Worse

||-_-_-_-_-_-_-_-_-_-_-_-_-_-_-_-_-_-_-_-_-_-_-_-_-_-_-_-_-_-_-_-_-_-_-_-_-_-_-||

This slide piece from the magnificent anime Trigun MUST be played on a dobro!!
Anyway, Tsuneo Imahori does...

And by the way if anyone out there got any anime or other slide pieces they 
want tabbed out, you can send a request to me (dansestruds@gmail.com) and i 
will consider it and get back to you as soon as possible!!

Have fun!!

- - - - - - - - - - - - - - - - - - - - - - - - - - - - - - - - - - - - - - - - 

Tabbers notes:

*this last part is originally played by 2 guitars. I chose however to make the
 tab for one guitar!

** 15 seconds or so into the mandolin-solo the guitarist just plays the four
  four high strings (D G H e) open for eight bars.

- - - - - - - - - - - - - - - - - - - - - - - - - - - - - - - - - - - - - - - -

Key: / - Slide Up
     \ - Slide Down
     x - Muted String
    () - Optional
     ~ - Vibrato

e |-----------------------------------------10\-7/----10\-7/-----------------|
H |------------------------------------------------8---------8---------------|
G |----------------------------------/12~----------------------7-7/10\7-7----|
D |----------------------------------/12~------------------------------------|
A |--3---\3--3/5-3/5-5~\-----------------------------------------------------|
E |--3/6------------------3/6\3-3--------------------------------------------|

e |--------------------------------------------------------------------------|
H |--------------------------------------------------------------------------|
G |--------------------------------------------------------------------------|
D |--5--/10~--5x-5/8-/10-/12~--5-5/8\5-5----/12~-----------------------------|
A |---x-------5x-5/8-/10-/12~----5/8\5(5)---/12~-----------------------------|
E |--------------------------------------3-----------------------------------|

e |----------------------------------------    -------    --------------    -|
H |---/(3)---/(12)-----------/(3)---/(12)~-    --/(3)-    --/(3)---(3)/-    -|
G |---/-3----/-12--12~-12~---/-3----/-12-~- 4x --/-3-- 4x --/-3-----3-/- 8x -|
D |---/-3----/-12--12~-12~---/-3----/-12-~-    --/-3--    --/-3-----3-/-    -|
A |---/(3)---/(12)-----------/(3)---/(12)~-    --/(3)-    --/(3)---(3)/-    -|
E |--3------3---------------3------3-------    -3-----    -3------3-----    -|

e |------------------------------------    ------0------0------    ----------|
H |---/(3)---/(12)--/(3)---(3)/---/(3)-    ------0------0----0-    ----------|
G |---/-3----/-12---/-3-----3-/---/-3-- 2x --5/7-0--5/7-0--5-0- 2x ----------|
D |---/-3----/-12---/-3-----3-/---/-3--    --5/7-0--5/7-0--5---    ----------|
A |---/(3)----------/(3)---(3)/---/(3)-    --------------------    ----------|
E |--3------3------3------3------3-----    --------------------    ----------|

e |--------------------------------------------------------------------------|
H |--------------------------------------------------------------------------|
G |--------------------------------------------------------------------------|
D |--------------------------------------------------------------------------|
A |--3---(6)/(8)(8)/(10)(10)\-(3)/(6)----------------------------------------|
E |--3-6--6-/-8--8-/-10--10-\--3-/-6--3--------------------------------------|

e |--------------------------------------------------------------------------|
H |--/12--12-12~-----------------------------/12~----------------------------|
G |--/12--12-12~---------/12--12-12~---------/12~----------------------------|
D |--/12--12-12~---------/12--12-12~---------/12~----------------------------|
A |--/12--12-12~----/6------------------/6---/12~----------------------------|
E |---------------3-/6-3--------------3-/6-3---------------------------------|

e |-------------------------    ---------------------------------------------| *
H |-------------------------    ------/(12)-(12)~----------------------------| 
G |------------------------- 2x ------/-12---12-~----------------------------|  
D |-------------------------    ------/-12---12-~----------------------------| 
A |--5-5-----\1---\1/---5-5-    -5-5--/(12)-(12)~----\1---\1/---5-5----------| 
E |--3-3---3----3-------3-3-    -3-3---------------3----3-------3-3----------| 

e |-----------------------------------------(8)/(10)-10~---------------------|
H |-------/(12)-(12)~------------------------8-/-10--------------------------|
G |-------/-12---12-~--------------------------------------------------------|
D |-------/-12---12-~--------------------------------------------------------|
A |--5-5--/(12)-(12)~----\1---\1/---5-5--------------------------------------|
E |--3-3---------------3----3-------3-3--------------------------------------|

e |--------------------------------------------------------------------------|
H |-------/(12)-(12)~--------------------------------------------------------|
G |-------/-12---12-~--------------------/(7)------/(5)------/(3)--0---------|
D |-------/-12---12-~--------------------/-7--(0)--/-5--(0)--/-3---0---------|
A |--5-5--/(12)-(12)~----\1---\1/---5-5--------------------------------------|
E |--3-3---------------3----3-------3-3--------------------------------------|

e |--------------------------------------------------------------------------|
H |-------/(12)-(12)~--------------------------------------------------------|
G |-------/-12---12-~--------------------------------------------------------|
D |-------/-12---12-~-----------------------------------------------------/5-|
A |--5-5--/(12)-(12)~----\1---\1/---5-5-------------------------------5-5----|
E |--3-3---------------3----3-------3-3--------------------------------------|

                                            This is where the mandolin solo begins

e |-------------------------------------    ---------------------------------| ** 
H |-------/(12)-(12)~-------------------    ---------------------------------|
G |-------/-12---12-~------------------- 2x ---------------------------------| 
D |-------/-12---12-~-------------------    ---------------------------------|
A |--5-5--/(12)-(12)~----\1---\1/---5-5-    ---------------------------------|
E |--3-3---------------3----3-------3-3-    ---------------------------------|

e |-----------------------------------------10\-7/----10\-7/-----------------|
H |------------------------------------------------8---------8---------------|
G |----------------------------------/12~----------------------7-7/10\7-7----|
D |----------------------------------/12~------------------------------------|
A |--3---\3--3/5-3/5-5~\-----------------------------------------------------|
E |--3/6------------------3/6\3-3--------------------------------------------|

e |--------------------------------------------------------------------------|
H |--------------------------------------------------------------------------|
G |--------------------------------------------------------------------------|
D |--5--/10~--5x-5/8-/10-/12~--5-5/8\5-5----/12~-----------------------------|
A |---x-------5x-5/8-/10-/12~----5/8\5(5)---/12~-----------------------------|
E |--------------------------------------3-----------------------------------|

   Guitar 1           Guitar 2

e |---------------    ----------------------------------
H |--/(3)---(3)/--    ----------------------------/12~---  F   O
G |--/-3-----3-/-- 4x --------/12--12-12~---------/12~----  A   U
D |--/-3-----3-/--    --------/12--12-12~---------/12~-----  D   T
A |--/(3)---(3)/--    ---/6------------------/6---/12~------  E   !
E |-3------3------    -3-/6-3--------------3-/6-3------------              


Tabbed by Spejderman (dansestruds@gmail.com)
Tap to rate this tab
 
# A B C D E F G H I J K L M N O P Q R S T U V W X Y Z