Song name
# A B C D E F G H I J K L M N O P Q R S T U V W X Y Z

Trio Los Panchos - Luna Lunera tab

Help us improve GuitareTab! Take a short survey!
http://www.vh1.com/artists/az/trio_los_panchos/artist.jhtml

Los Panchos
Luna Lunera (Intro)

tabbed by jam9383@yahoo.com


e----------------8-8-----------------6-6-----------------4-4----------|
B--9-8-6-6-6-8-9-9-9-9-8-6-4-4-4-6-8-8-8-8-6-4-2-2-2-4-6-6-6----------|
G---------------------------------------------------------------------|
D---------------------------------------------------------------------|
A---------------------------------------------------------------------|
E---------------------------------------------------------------------|

e-----------------3-3-------------------------------------------------|
B-6-4-2-1-1-1-2-4-4-4------------------6-6---------------4-4----------|
G----------------------8-6-5-3-3-3-5-6-6-6-6-5-3-1-1-1-3-5-5-5-3-1----|
D---------------------------------------------------------------------|
A---------------------------------------------------------------------|
E---------------------------------------------------------------------|

e---------------------------------------------------------------------|
B-----------2-2---------------1-1-------------------------------------|
G-0-0-0-1-3-3-3-3-1-0-------0-1-1-------------------------------------|
D---------------------3-3-3-------------------------------------------|
A---------------------------------------------------------------------|
E---------------------------------------------------------------------|

correciones/corrections contact me.
Related for Luna Lunera tab