Song name
# A B C D E F G H I J K L M N O P Q R S T U V W X Y Z

Trio Los Panchos - Piel Canela tab

Los Panchos
Piel Canela

tabbed by jam9383@yahoo.com

e---------------------------------------------------------------------|
B--------------8----------------8---------------7----------------7----|
G----------------6----------------6---------------6----------------6--|
D--7-7-7-7-7-9------7-7-7-7-7-9-----7-7-7-7-7-9-----7-7-7-7-7-9-------|
A---------------------------------------------------------------------|
E---------------------------------------------------------------------|

e------------------------------------------5-7-9-10--10---------------|
B--------------8-------------10-8-7-5---------------------------------|
G----------------6----------------------------------------------------|
D--7-7-7-7-7-9------7-7-7-7-------------------------------------------|
A---------------------------------------------------------------------|
E---------------------------------------------------------------------|

correciones/corrections contact me
Tap to rate this tab
 
# A B C D E F G H I J K L M N O P Q R S T U V W X Y Z