Song name
# A B C D E F G H I J K L M N O P Q R S T U V W X Y Z

Trio Los Panchos - Media Vuelta tab

Help us improve GuitareTab! Take a short survey!
Los Panchos
Media Vuelta

tabbed by jam9383@yahoo.com

e---------------------------------------------------------------------|
B--6//----10//---11-10-11-10-8-6-6-6--8//---6-6-6--4-6//--4//---3-----|
G--7//----10//---12-10-12-10-8-7-7-7--8//---7-7-7--5-7//--5//---3-----|
D---------------------------------------------------------------------|
A---------------------------------------------------------------------|
E---------------------------------------------------------------------|

e---------------------------------------------------------------------|
B--3-4-6-4-3------4-3-1-----------------------------------------------|
G------------5----------3-2-3-----------------------------------------|
D---------------------------------------------------------------------|
A---------------------------------------------------------------------|
E---------------------------------------------------------------------|

correciones/corrections contact me
Related for Media Vuelta tab