Song name
# A B C D E F G H I J K L M N O P Q R S T U V W X Y Z

Trio - Da Da Da tab

Song: Da da da, ich lieb' dich nicht du liebst mich nicht aha aha aha
Band: Trio
Album: Trio
Year: 1982
Tabber: beranger80@hotmail.com



Aha! Aha! Aha!


Loop played all the song:

e--------15---15------15-------|
B------------------------------|
G----12-----------12-----------|
D------------------------------|
A------------------------------|
E------------------------------|


Aha! Aha! Aha!

Was ist los mit dir mein Schatz, aha?
Geht es immer nur bergab, aha?
Geht nur das was du verstehst, aha?
This is what you got to know:
Let you go, it didn´t show.

Ich lieb dich nicht, du liebst mich nicht.
Ich lieb dich nicht, du liebst mich nicht.
Ich lieb dich nicht, du liebst mich nicht.
Ich lieb dich nicht, du liebst mich nicht.



Guitar 0:55

e----------|----------|----------|----------|
B----------|----------|----------|----------|
G----------|----------|----------|----------|
D-----5----|----3-----|-----5----|----3-----|
A---3---3--|----------|----------|----------|
E----------|--1----1--|--3----3--|--1----1--|x12


Da da da - da da da
Da da da - da da da
Da da da - Ich lieb dich nicht, du liebst mich nicht.
Da da da - Ich lieb dich nicht, du liebst mich nicht.
Da da da - Ich lieb dich nicht, du liebst mich nicht.
Da da da - Ich lieb dich nicht, du liebst mich nicht.



"Casio VL-1" riff 1:24

e--0--1-------------------|
B--------3--1--0----------|
G------------------(0)----|
D-------------------------|
A-------------------------|
E-------------------------|x4


Da da da - da da da
Da da da - da da da

(Ich lieb dich nicht, du liebst mich nicht) - Aha!
(Ich lieb dich nicht, du liebst mich nicht) - Aha!
(Ich lieb dich nicht, du liebst mich nicht) - Aha!
(Ich lieb dich nicht, du liebst mich nicht) - Aha!

Soso, du denkst, es ist zu spät, aha!
Und du meinst, daß nichts mehr geht, aha!
Und die Sonne wandert schnell, aha!
After all is said and done,
it was right for you to run!

Ich lieb dich nicht, du liebst mich nicht - Aha!
Ich lieb dich nicht, du liebst mich nicht - Aha!
Ich lieb mich nicht, du liebst mich nicht - Aha!
Ich lieb dich nicht, du liebst dich nicht - Aha!



Guitar 2:28

e----------|----------|----------|----------|
B----------|----------|----------|----------|
G----------|----------|----------|----------|
D-----5----|----3-----|-----5----|----3-----|
A---3---3--|----------|----------|----------|
E----------|--1----1--|--3----3--|--1----1--| repeat to the end


Da da da - da da da
Da da da - da da da
Da da da - Ich lieb dich nicht, du liebst mich nicht.
Da da da - Ich lieb dich nicht, du liebst mich nicht.
Da da da - Ich lieb dich nicht, du liebst mich nicht.
Da da da - Ich lieb dich nicht, du liebst mich nicht.



"Casio VL-1" riff 2:57

e--0--1-------------------|
B--------3--1--0----------|
G------------------(0)----|
D-------------------------|
A-------------------------|
E-------------------------|x4

Da da da - da da da
Da da da - da da da
Tap to rate this tab
 
# A B C D E F G H I J K L M N O P Q R S T U V W X Y Z