Song name
# A B C D E F G H I J K L M N O P Q R S T U V W X Y Z

Trip - Whos That tab

                             Trip - Whos That

Tuning: Standard

Riff 1
-------------------------|
-------------------------|
---4---4-2---------------|
---4---4-2-5---5-4-2--7--|
---2---2-0-5---5-4-2--7--|
-----------3---3-2-0--5--|


Riff 2
--------------------------------------------|
--------------------------------------------|
--44444--4-2-------------------------22222--|
--44444--4-2--55555---5-4-22222---22-22222--|
--22222--2-0--55555---5-4-22222---22-00000--|
--------------33333---3-2-00000---00--------|

http://www.myspace.com/tripskingdom
Tap to rate this tab
 
# A B C D E F G H I J K L M N O P Q R S T U V W X Y Z