Song name
# A B C D E F G H I J K L M N O P Q R S T U V W X Y Z

Tripod - Ivory Tower tab

IVORY TOWER - Tripod (with Elana Stone)

Tabbed by: lemnisca
Email: lemnisca@gmail.com

Tuning: Standard

Chords used:
Em: 022000
B7: x2120x
C: x32010
Am: x02210
G: 320033

  INTRO
e|----------------|----------------|----------------|----------------|
B|------0-------0-|------0-------0-|------0-------0-|------0-------0-|
G|--0-------0-----|--0-------0-----|--0-------0-----|--0-------0-----|
D|----2-------2---|----2-------2---|----2-------2---|----2-------2---|
A|----------------|----------------|----------------|----------------|
E|0-------0-------|0-------0-------|0-------0-------|0-------0-------|
  Em

e|----------------|----------------|----------------|----------------|
B|------0-------0-|------0-------0-|------0-------0-|------0-------0-|
G|--0-------0-----|--0-------0-----|--0-------0-----|--0-------0-----|
D|----2-------2---|----2-------2---|----2-------2---|----2-------2---|
A|----------------|----------------|----------------|----------------|
E|0-------0-------|0-------0-------|0-------0-------|0-------0-------|
  Em


  VERSE I
e|----------------|----------------|
B|------0-------0-|------0-------0-|
G|--0-------0-----|--2-------2-----|
D|----2-------2---|----1-------1---|
A|----------------|2-------2-------|
E|0-------0-------|----------------|

  Em            B7
  I was made in darkest night

e|----------------|----------------|
B|------1-------1-|------1-------1-|
G|--0-------0-----|--2-------2-----|
D|----2-------2---|----2-------2---|
A|3-------3-------|0-------0-------|
E|----------------|----------------|

  C                 Am
  of chalky ash and childrens' fright

e|----------------|----------------|----------------|----------------|
B|------0-------0-|------0-------0-|------0-------0-|------0-------0-|
G|--0-------0-----|--2-------2-----|--0-------0-----|--0-------0-----|
D|----2-------2---|----1-------1---|----2-------2---|----2-------2---|
A|----------------|2-------2-------|----------------|----------------|
E|0-------0-------|----------------|0-------0-------|0-------0-------|

  Em                 B7            Em
  I do not think you know what you behold

e|----------------|----------------|
B|------0-------0-|------0-------0-|
G|--0-------0-----|--0-------0-----|
D|----2-------2---|----2-------2---|
A|----------------|----------------|
E|0-------0-------|0-------0-------|
  Em

e|----------------|----------------|
B|------0-------0-|------0-------0-|
G|--0-------0-----|--2-------2-----|
D|----2-------2---|----1-------1---|
A|----------------|2-------2-------|
E|0-------0-------|----------------|

  Em            B7
  I was made of aching hurt

e|----------------|----------------|
B|------1-------1-|------1-------1-|
G|--0-------0-----|--2-------2-----|
D|----2-------2---|----2-------2---|
A|3-------3-------|0-------0-------|
E|----------------|----------------|

  C                 Am
  of fairytales and bloodied dirt

e|----------------|----------------|----------------|----------------|
B|------0-------0-|------0-------0-|------0-------0-|------0-------0-|
G|--0-------0-----|--2-------2-----|--0-------0-----|--0-------0-----|
D|----2-------2---|----1-------1---|----2-------2---|----2-------2---|
A|----------------|2-------2-------|----------------|----------------|
E|0-------0-------|----------------|0-------0-------|0-------0-------|

  Em            B7         Em
  I hope you do exactly as you're told

e|----------------|----------------|
B|------0-------0-|------0-------0-|
G|--0-------0-----|--0-------0-----|
D|----2-------2---|----2-------2---|
A|----------------|----------------|
E|0-------0-------|0-------0-------|
  Em

e|----------------|----------------|
B|------1-------1-|------1-------1-|
G|--0-------0-----|--0-------0-----|
D|----2-------2---|----2-------2---|
A|3-------3-------|3-------3-------|
E|----------------|----------------|

  C
  Siegfried and St. George

e|----------------|----------------|
B|------0-------0-|------0-------0-|
G|--0-------0-----|--0-------0-----|
D|----2-------2---|----2-------2---|
A|----------------|----------------|
E|0-------0-------|0-------0-------|

  Em
  Potter, Baggins, Beowulf

e|----------------|----------------|
B|------1-------1-|------1-------1-|
G|--0-------0-----|--0-------0-----|
D|----2-------2---|----2-------2---|
A|3-------3-------|3-------3-------|
E|----------------|----------------|

  C
  Were tempered in my forge

e|----------------|----------------|
B|------0-------0-|------0-------0-|
G|--2-------2-----|--2-------2-----|
D|----1-------1---|----1-------1---|
A|2-------2-------|2-------2-------|
E|----------------|----------------|

  B7
  So I say to you and yours


  CHORUS I
e|----------------|----------------|
B|------1-------1-|------1-------1-|
G|--2-------2-----|--2-------2-----|
D|----2-------2---|----2-------2---|
A|0-------0-------|0-------0-------|
E|----------------|----------------|

  Am
  All caught fire in the

e|----------------|----------------|
B|------0-------0-|------0-------0-|
G|--0-------0-----|--0-------0-----|
D|----2-------2---|----2-------2---|
A|----------------|----------------|
E|0-------0-------|0-------0-------|

  Em
  Ivory tower in the

e|----------------|----------------|
B|------1-------1-|------1-------1-|
G|--2-------2-----|--2-------2-----|
D|----2-------2---|----2-------2---|
A|0-------0-------|0-------0-------|
E|----------------|----------------|

  Am
  Marble arches in the

e|----------------|----------------|
B|------3-------3-|------3-------3-|
G|--0-------0-----|--0-------0-----|
D|----0-------0---|----0-------0---|
A|----------------|----------------|
E|3-------3-------|3-------3-------|

  G
  Dust and darknes and I

e|----------------|----------------|----------------|----------------|
B|------1-------1-|------0-------0-|------0-------0-|------0-------0-|
G|--2-------2-----|--2-------2-----|--0-------0-----|--0-------0-----|
D|----2-------2---|----1-------1---|----2-------2---|----2-------2---|
A|0-------0-------|2-------2-------|----------------|----------------|
E|----------------|----------------|0-------0-------|0-------0-------|

  Am       B7    Em
  Have you on my mind


VERSE II
Once a mighty tree was grown
For you to know all that is known
I hope you hear exactly what I say
And by your sword a branch came down
And where the blood fell to the ground
It is my cradle and there I must stay

And should ever you return
Well I must confess my story to be true
You will be burned
And I hope that you have learned

CHORUS II
e|----------------|----------------|
B|------1-------1-|------1-------1-|
G|--2-------2-----|--2-------2-----|
D|----2-------2---|----2-------2---|
A|0-------0-------|0-------0-------|
E|----------------|----------------|

  Am
  All caught fire in the

e|----------------|----------------|
B|------0-------0-|------0-------0-|
G|--0-------0-----|--0-------0-----|
D|----2-------2---|----2-------2---|
A|----------------|----------------|
E|0-------0-------|0-------0-------|

  Em
  Ivory tower in the

e|----------------|----------------|
B|------1-------1-|------1-------1-|
G|--2-------2-----|--2-------2-----|
D|----2-------2---|----2-------2---|
A|0-------0-------|0-------0-------|
E|----------------|----------------|

  Am
  Marble arches in the

e|----------------|----------------|
B|------3-------3-|------3-------3-|
G|--0-------0-----|--0-------0-----|
D|----0-------0---|----0-------0---|
A|----------------|----------------|
E|3-------3-------|3-------3-------|

  G
  Dust and darknes and

e|----------------|----------------|
B|------1-------1-|------1-------1-|
G|--2-------2-----|--2-------2-----|
D|----2-------2---|----2-------2---|
A|0-------0-------|0-------0-------|
E|----------------|----------------|

  Am
  All caught fire in the

e|----------------|----------------|
B|------0-------0-|------0-------0-|
G|--0-------0-----|--0-------0-----|
D|----2-------2---|----2-------2---|
A|----------------|----------------|
E|0-------0-------|0-------0-------|

  Em
  Ivory tower and I

e|----------------|----------------|----------------|
B|------1-------1-|------0-------0-|------1-------1-|
G|--2-------2-----|--2-------2-----|--2-------2-----|
D|----2-------2---|----1-------1---|----2-------2---|
A|0-------0-------|2-------2-------|0-------0-------|
E|----------------|----------------|----------------|

  Am       B7    Am
  Have you on my mind

e|----------------|----------------|----------------|
B|------1-------1-|------0-------0-|------1-------1-|
G|--2-------2-----|--2-------2-----|--2-------2-----|
D|----2-------2---|----1-------1---|----2-------2---|
A|0-------0-------|2-------2-------|0-------0-------|
E|----------------|----------------|----------------|

  Am     B7    Am
  You're on my mind

e|----------------|----------------|----------------|----------------|-----0----------|
B|------1-------1-|------0-------0-|------0-------0-|------0-------0-|----0-----------|
G|--2-------2-----|--2-------2-----|--0-------0-----|--0-------0-----|---0------------|
D|----2-------2---|----1-------1---|----2-------2---|----2-------2---|--2-------------|
A|0-------0-------|2-------2-------|----------------|----------------|-2--------------|
E|----------------|----------------|0-------0-------|0-------0-------|0---------------|

  Am     B7    Em
  You're on my mind
Tap to rate this tab
 
# A B C D E F G H I J K L M N O P Q R S T U V W X Y Z