Song name
# A B C D E F G H I J K L M N O P Q R S T U V W X Y Z

Tripping Daisy - Piranha tab

“Piranha”
Tripping Daisy
I Am Elastic Firecracker

Tabbed by Matthew Frank
mister_rocketpop@hotmail.com

Intro: [G1] [x4]
E|--------------------------------|
B|--------------------------------|
G|--------------------------------|
D|-4-4-4-4-4-4-4-4-2-2-2-2-2-2-2-2|
A|-2-2-2-2-2-2-2-2-2-2-2-2-2-2-2-2|
E|--------------------------------|

Verse: [G1]
E|---0---|---0---|
B|---0---|---0---|
G|---8---|---9---|
D|---9---|---9---|
A|---9---|---7---|
E|---7---|---0---|

Verse: [G2] [lead]
E|--------------------------------------------------------|
B|--------------------------------------------------------|
G|--------------------------------------------------------|
D|--------------------------------------------------------|
A|-0----2---0--2--0--2-/7----7-7-7-9-6----6--6--6--6\2--2-|
E|--------------------------------------------------------|

E|------------|
B|------------|
G|------------|
D|------------|
A|-2--4---4-4-|
E|------------|

Interlude: [both guitars]
E|---6--5--0--7|
B|---7--5--0--7|
G|---8--7--2--8|
D|---8--7--2--9|
A|---6--5--1--9|
E|---------0--7|

E|---6--5--0|
B|---7--5--0|
G|---8--7--2|
D|---8--7--2|
A|---6--5--1|
E|---------0|

Repeat Verse

Solo: [G1]
E|---------------------------------------------------------|
B|-----------------------------------------3----3-----3----|
G|--2-2-2-2-2-2-2-2-4-4--4--4-4-------2-4-----4---4-4----4-|
D|--------------------------------2-4----------------------|
A|---------------------------------------------------------|
E|---------------------------------------------------------|

E|---------------------------------------------------------|
B|-5-3-----5-3-----5-3-----5-3-----------------------------|
G|-----4-2-----4-2-----4-2-----4-2---2-4---2-4---2-4---2-4-|
D|---------------------------------------------------------|
A|---------------------------------------------------------|
E|---------------------------------------------------------|

E|---------------------------------------------------------|
B|------------10----10---------------------------8---------|
G|-2-2-/7-7-7-----7----7-/9--9-9-9-7---7-7-9-7-9---9-7-6-7-|
D|---------------------------------------------------------|
A|---------------------------------------------------------|
E|---------------------------------------------------------|

E|---------------------------------------------------------|
B|------------------3-5-3-------------3-5-3-5-3-3-/8--8-10-|
G|-5-4-2-4--2---2-4-------4-2-4---2-4----------------------|
D|---------------------------------------------------------|
A|---------------------------------------------------------|
E|---------------------------------------------------------|

E|-8\7--7--7--7--7--7--7---7--------7------5---5---5-------|
B|-----------------------5---5--5-5---5--7---7---7---7---7-|
G|---------------------------------------------------------|
D|---------------------------------------------------------|
A|---------------------------------------------------------|
E|---------------------------------------------------------|

E|---------------------------------------------------------|
B|-5-3-5-3--------------------------3-5-3------------3-5-3-|
G|---------4-4-4-4-7-4-7-4--2---2-4-------4-2-4--2-4-------|
D|---------------------------------------------------------|
A|---------------------------------------------------------|
E|---------------------------------------------------------|

E|----------------------------------------------------|
B|------------3-5-3-5-3-------------------------------|
G|-4-2-4--2-4-----------4-2---4---/7---4----2h4-------|
D|----------------------------------------------------|
A|----------------------------------------------------|
E|----------------------------------------------------|
Tap to rate this tab
 
# A B C D E F G H I J K L M N O P Q R S T U V W X Y Z