Song name
# A B C D E F G H I J K L M N O P Q R S T U V W X Y Z

Tripping Daisy - Lost And Found tab

Tripping Daisy - Lost & Found

Album: Bill
Instrument: Guitar
Tuning: eBGDAE

Tabbed By: Matthew Frank


Verse

e||-0----0-3----0-0----0-3----0-0-|
B||-0----2-3----2-0----2-3----2-2-|
G||-1----2-0----2-1----2-0----2-2-|
D||-2----2-0----2-2----2-0----2-2-|
A||-2----0-2----0-2----0-2----0-0-|
E||-0------3------0------3--------|

Chorus

e||-0-0-0-0-3-3-3-3-0-0-0-0-0-0-0-0-|-3--0-|
B||-0-0-0-0-3-3-3-3-2-2-2-2-2-2-2-2-|-3--0-|
G||-1-1-1-1-0-0-0-0-2-2-2-2-2-2-2-2-|-0--1-|
D||-2-2-2-2-0-0-0-0-2-2-2-2-2-2-2-2-|-0--2-|
A||-2-2-2-2-2-2-2-2-0-0-0-0-0-0-0-0-|-2--2-|
E||-0-0-0-0-3-3-3-3-----------------|-3--0-|

Bridge

e||-3-3-3-3-5-5---5-|
B||-3-3-3-3-5-5---5-|
G||-4-4-4-4-6-6---6-|
D||-5-5-5-5-7-7---7-|
A||-5-5-5-5-7-7---7-|
E||-3-3-3-3-5-5---5-|
Tap to rate this tab
# A B C D E F G H I J K L M N O P Q R S T U V W X Y Z