Song name
# A B C D E F G H I J K L M N O P Q R S T U V W X Y Z

Tripping Daisy - Change Of Mind tab

Tripping Daisy - Change of Mind

Album: Bill
Instrument: Guitar
Tuning: eBGDAE

Tabbed By: Matthew Frank


Verse

e||-------------------------------------0-----------0--0-0|
B||-------------------------------------0-----------0--0-0|
G||-------10---------------10-----------8-----------3--3-3|
D||---11----11--11--11-------------9----------4--------4-4|
A||-----------11--11--11-------------------------------4-4|
E||-9----9---------------9------7----7-----2-----2-----2-2|

Chorus

e||-4-4-4-4-x-x-4-4-4-4-4-4-x-x-x-x-7-7-7-7-x-x-2-2-2-2-2-2-x-x-x-x|
B||-6-6-6-6-x-x-6-6-6-6-6-6-x-x-x-x-7-7-7-7-x-x-2-2-2-2-2-2-x-x-x-x|
G||-6-6-6-6-x-x-6-6-6-6-6-6-x-x-x-x-8-8-8-8-x-x-3-3-3-3-3-3-x-x-x-x|
D||-6-6-6-6-x-x-6-6-6-6-6-6-x-x-x-x-9-9-9-9-x-x-4-4-4-4-4-4-x-x-x-x|
A||-4-4-4-4-x-x-4-4-4-4-4-4-x-x-x-x-9-9-9-9-x-x-4-4-4-4-4-4-x-x-x-x|
E||---------x-x-------------x-x-x-x-7-7-7-7-x-x-2-2-2-2-2-2-x-x-x-x|

Bridge

e||-------------------------|
B||-5-5-----5----7-7-----7--|
G||-6---6-----6--8---8-----8|
D||-7-----7------9-----9----|
A||-------------------------|
E||-------------------------|

Outro

e||-3-3-3-5-5-5-3-3-3-5-5-5-3-3-5-5-5-|
B||-3-3-3-5-5-5-3-3-3-5-5-5-3-3-5-5-7-|
G||-4-4-4-6-6-6-4-4-4-6-6-6-4-4-6-6-7-|
D||-5-5-5-7-7-7-5-5-5-7-7-7-5-5-7-7-7-|
A||-5-5-5-7-7-7-5-5-5-7-7-7-5-5-7-7-5-|
E||-3-3-3-5-5-5-3-3-3-5-5-5-3-3-5-5---|
Tap to rate this tab
# A B C D E F G H I J K L M N O P Q R S T U V W X Y Z