Triptykon - Shatter tab

-------------------------------------------------------------------------------
			                      SHATTER - Triptykon
-------------------------------------------------------------------------------
Tabbed by: theshadow180

Tuning:Drop C#

Both guitars are heavily distorted with I think a touch of delay to get that dark echo effect
It starts off with an eight bar drum and bass intro but at around 0:41 the guitars come in

Intro
eb|-----------------------------------------------------------------|
Bb|-----------------------------------------------------------------|
Gb|-----------------------------------------------------------------|
Db|----0-----------------1-1-0-0-0-------------------1-1-0-0-0------|
Ab|----0-----------------1-1-0-0-0-------------------1-1-0-0-0------|
C#|----0-----------------1-1-0-0-0-------------------1-1-0-0-0------|
   V1   I don't want to feel        I don't want to see        I don't
   V2   To feel is suffering        To feel is rejection       To feel is

eb|------------------------------------------------------------------------|
Bb|------------------------------------------------------------------------|
Gb|------------------------------------------------------------------------|
Db|------------1-1-0-0-0---------------------1-1-0-0-0-----------------1-1-|
Ab|------------1-1-0-0-0---------------------1-1-0-0-0-----------------1-1-|
C#|------------1-1-0-0-0---------------------1-1-0-0-0-----------------1-1-|
    want to love         I don't want to live        I don't wish to drown
    despair               To feel is to die          The air liquefies     
eb|------------------------------------------------------------------------|
Bb|------------------------------------------------------------------------|
Gb|------------------------------------------------------------------------|
Db|--0-h5/8\7------------------1-1-0-h5/8\7----------------1-1-0-h5/8\7----|
Ab|--0-(0)-(0)-----------------1-1-0-(0)-(0)---------------1-1-0-(0)-(0)---|
C#|--0-(0)-(0)-----------------1-1-0-(0)-(0)---------------1-1-0-(0)-(0)---|
    in the beauty of your eyes           I don't wish to remember the warmth
    as it enters my shattered lungs      darkness enwraps my mind as my 

*with the slide part its played as you strum the open chord so play the C# chord 
but use your index finger to hammer on the fifth fret and slide up and back)

eb|------------------------------------------------------------------------|
Bb|------------------------------------------------------------------------|
Gb|------------------------------------------------------------------------|
Db|-----------------1-1-0-h5/8\7--------------1-1-0-h5/8\7-----------------|
Ab|-----------------1-1-0-(0)-(0)-------------1-1-0-(0)-(0)----------------|
C#|-----------------1-1-0-(0)-(0)-------------1-1-0-(0)-(0)----------------|
    of your embrace          I dont wish to bleed on your altar of 
blood stains  your skin      My heart pierced by thorns of words that now 
eb|------------------------------------------------------------------------|
Bb|------------------------------------------------------------------------|
Gb|------------------------------------------------------------------------|
Db|--------1-1-0-h5/8\7----------------1-1-0-h5/8\7------------------------|
Ab|--------1-1-0-(0)-(0)---------------1-1-0-(0)-(0)-----------------------|
C#|--------1-1-0-(0)-(0)---------------1-1-0-(0)-(0)-----------------------|
    demise          I don't wish to wither among the petals of disgrace
 seem wrong         I yield to the darkness of the agony deep within
eb|------------------------------------------------------------------------|
Bb|------------------------------------------------------------------------|
Gb|------------------------------------------------------------------------|
Db|---1-1-0----------------------------------------------------------------|
Ab|---1-1-0----------------------------------------------------------------|
C#|---1-1-0----------------------------------------------------------------|
                            (drum bridge)
  Chorus
Rhythm (Fischer)
eb|--------------------------------------------------------------------|
Bb|--------------------------------------------------------------------|
Gb|--------------------------------------------------------------------|
Db|--0-0-0-------------------1-1-0-0-0---------------------1-1-0-0-0---| 
Ab|--0-0-0-------------------1-1-0-0-0---------------------1-1-0-0-0---|
C#|--0-0-0-------------------1-1-0-0-0---------------------1-1-0-0-0---|
         Why did you cast me into a bottomless pit of pain         Why
         
eb|------------------------------------------------------------------------|
Bb|------------------------------------------------------------------------|
Gb|------------------------------------------------------------------------|
Db|---------------1-1-0-0-0-----------------------1-1-0-0-0----------------|
Ab|---------------1-1-0-0-0-----------------------1-1-0-0-0----------------|
C#|---------------1-1-0-0-0-----------------------1-1-0-0-0----------------|
    did you cast me into a bottomless pit of pain         My love the 

eb|------------------------------------------------------------------------|
Bb|------------------------------------------------------------------------|
Gb|------------------------------------------------------------------------|
Db|--------1-1-0-0-0-----------------------1-1-0-0-0-----------------------|
Ab|--------1-1-0-0-0-----------------------1-1-0-0-0-----------------------|
C#|--------1-1-0-0-0-----------------------1-1-0-0-0-----------------------|
      sac-ri-fice in a temple of disdain             Why did you cast me 

eb|--------------------------------------------|
Bb|--------------------------------------------|
Gb|--------------------------------------------|
Db|--1-1-0-0-0---------------------1-1-0-------|
Ab|--1-1-0-0-0---------------------1-1-0-------|
C#|--1-1-0-0-0---------------------1-1-0-------|
    into a bottomless pit of pain                 

Lead (Santura) *listen to the song for the timing
eb|--------------------------------------------------------------|
Bb|--------------------------------------------------------------|
Gb|--------------------------------------------------------------|
Db|-------10-12-12-12-12-12-10-12-12-12-12-12-10-12-13-12-10-12--| X2
Ab|--------------------------------------------------------------|
C#|--------------------------------------------------------------|

eb|--------------------------------------------------------------|
Bb|-------13-10-10-10-10-10-10----13-10-10-10-10-10----13-10~----|
Gb|----------------------------12-------------------12-----------|
Db|--------------------------------------------------------------|
Ab|--------------------------------------------------------------|
C#|--------------------------------------------------------------|

                                                             (Final Chorus 
                                                                 finish) 
                                                                   |
eb|-------------------------------------------------------------|-----|
Bb|-------------------------------------------------------------|-----|
Gb|-------------------------------------------------------------|-----|
Db|-------10-12-12-12-12-12-10-12-12-12-12-12-10-12-13-12-10-12-|-10~-|
Ab|-------------------------------------------------------------|-----|
C#|-------------------------------------------------------------|-----|

Intro
Bridge
Chorus
Drum Bridge
Drum, Bass and Vocal Interlude
(Play from) Intro
Drum Bridge 
Drum, Bass and Vocal Interlude
Chorus X2

************************************

| /   slide up
| \   slide down
| h   hammer-on
| p   pull-off
| ~   vibrato

************************************
Tap to rate this tab
 
# A B C D E F G H I J K L M N O P Q R S T U V W X Y Z