Song name
# A B C D E F G H I J K L M N O P Q R S T U V W X Y Z

Triptykon - A Thousand Lies tab

Triptykon ~ One Thousand Lies

Intro
|---------------------------------------------------------|
|---------------------------------------------------------|
|---------------------------------------------------------|
|---------------------------------------------------------|
|---------------------------------------------------------|
|-3p0-0-0h3p0-0-0h3p0-0-0h4-4-3p0-0-0h3p0-0-0h3p0-0-0h4-4-|

Verse
|-------------------------------------|
|-------------------------------------|
|-------------------------------------|
|-------------------------------------|
|-------------------------------------|
|-1-00-1-00-1-00-22-1-00-1-00-1-00-22-|

Pre-chorus
|----------------------------------------------------------------|
|----------------------------------------------------------------|
|----------------------------------------------------------------|
|--------------------------------------------------------4-4-4-4-|
|5-5-5-5-4-4-4-4-5-5-5-5-4-4-4-4-5-5-5-5-7-7-7-7-5-5-5-5-2-2-2-2-|
|3-3-3-3-2-2-2-2-3-3-3-3-2-2-2-2-3-3-3-3-5-5-5-5-3-3-3-3---------|

Chorus
|-------------------------------------------------------------------------------|
|-------------------------------------------------------------------------------|
|-------------------------------------------------------------------------------|
|-------------------------------------------------------------------------------|
|----------------------------------77-88----------------------------------77-88-|
|-3p0-000000-3p0-000000-3p0-000000-55-66-3p0-000000-3p0-000000-3p0-000000-55-66-|

Riff
|-------------------------------------|
|-------------------------------------|
|-------------------------------------|
|-----------------------------5---7---|
|-----------------------------3-4-5-5-|
|-2-000000-2-000000-2-000000----2---3-|
    ......   ......   ......

Riff 2
|--------------------------------------------|
|--------------------------------------------|
|--------------------------------------------|
|--------------------------------------------|
|-2-2--5----22-2--8-7----2-2--5----22-2--8-7-|
|-0-0--3----00-0--6-5----0-0--3----00-0--6-5-|

Riff 3
|----------------------------------------|
|----------------------------------------|
|----------------------------------------|
|----------------------------------------|
|----------------------------------------|
|-7-7-7-10-9-6-6-6-9-7-5-5-5-8-7-4-4-4-4-|

Riff 4
|-----------------------------|
|-----------------------------|
|-----------------------------|
|------5-4-----------5-4------|
|-2--2-3-2-5--3-2--2-3-2-5--3-|
|-0--0-----3--1-0--0-----3--1-|
  .  . . . .  . .  . . . .  .

Didn't tab the solo, and I'm not completely sure if the tab is ok, but it sounds pretty 
accurate to me.
Tap to rate this tab
 
# A B C D E F G H I J K L M N O P Q R S T U V W X Y Z