Triptykon - Shatter tab

-------------------------------------------------------------------------------
			     SHATTER - Triptykon
-------------------------------------------------------------------------------
Tabbed by:Mikkem719
Email:hunter719@yahoo.com

Tuning: Drop C# (C# G# C# F# A# D#)
VERSE:
D#|--------------------------------------------------------------------------|
A#|--------------------------------------------------------------------------|
F#|--------------------------------------------------------------------------|
C#|-0--------1--0---------1--0---------1--0----------------------------------|
G#|-0--------1--0---------1--0---------1--0----------------------------------|
C#|-0--------1--0---------1--0---------1--0----------------------------------|

D#|--------------------------------------------------------------------------|
A#|--------------------------------------------------------------------------|
G#|--------------------------------------------------------------------------|
D#|-1--0----------1--0----------1--0----------1--0---------------------------|
G#|-1--0--/3-3-33-1--0-/3-3-33--1--0-/3-3-33--1--0-/3-3-33-------------------|
C#|-1--0----------1--0----------1--0----------1--0---------------------------|

D#|--------------------------------------------------------------------------|
A#|--------------------------------------------------------------------------|
F#|--------------------------------------------------------------------------|
C#|-1--0-/5-5p3-3-1--0-/5-5p3-3-1--0-/5-5p3-3-1--0-/5-5p3-3-1--0-------------|
G#|-1--0----------1--0----------1--0----------1--0----------1--0-------------|
C#|-1--0----------1--0----------1--0----------1--0----------1--0-------------|
CHORUS:
D#|--------------------------------------------------------------------------|
A#|--------------------------------------------------------------------------|
F#|------/5-5h7-7------/5-5h7-7------/5-5h7-7------/5-5h7-7------------------|
C#|-1--0----------1--0----------1--0----------1--0---------------------------|
G#|-1--0----------1--0----------1--0----------1--0---------------------------|
C#|-1--0----------1--0----------1--0----------1--0---------------------------|

D#|--------------------------------------------------------------------------|
A#|-13-------10--------------------------------------------------------------|
F#|-------------------12-----------------------------------------------------|
C#|----10-12----12-10----10--------------------------------------------------|
G#|--------------------------------------------------------------------------|
C#|--------------------------------------------------------------------------|
  (repeat the above four times)

Thatís pretty much everything, repeat parts when necessary, overall a pretty easy and 
fun song to learn, email me any corrections.


************************************

| /   slide up
| \   slide down
| h   hammer-on
| p   pull-off
| ~   vibrato
| +   harmonic
| x   Mute note
| b   Bend
| pb  Pre-bend
| br  Bend release
| pbr Pre-bend release
| brb Bend release bend

************************************
Tap to rate this tab
 
# A B C D E F G H I J K L M N O P Q R S T U V W X Y Z