Song name
# A B C D E F G H I J K L M N O P Q R S T U V W X Y Z

Tristam - Truth tab

Truth - Tristam

Capo - none
Tuning - Standard

Hey guys, this is my first tab, hope you enjoy. Basically, the tune follows these 
chords, on and on throughout most of the song, enjoy!

       G       G  A  G  A  A#       A#      A# C  A# A  G
E|-----3-------3--5--3--5--6------|-6-------6--8--6--5--3--------------------|
B|-----3-------3--5--3--5--6------|-6-------6--8--6--5--3--------------------|
G|-----4-------4--6--4--6--7------|-7-------7--9--7--6--4--------------------|
D|-----5-------5--7--5--7--8------|-8-------8--10-8--7--5--------------------|
A|-----5-------5--7--5--7--8------|-8-------8--10-8--7--5--------------------|
E|-----3-------3--5--3--5--6------|-6-------6--8--6--5--3--------------------|

                               ... and it went on and on and on.....

E|-----3-------3--5--3--5h6-------|-6-------6--8--6h5--3---------------------|
B|--------------------------------|------------------------------------------|
G|--------------------------------|------------------------------------------|
D|--------------------------------|------------------------------------------|
A|--------------------------------|------------------------------------------|
E|--------------------------------|------------------------------------------|
Tap to rate this tab
# A B C D E F G H I J K L M N O P Q R S T U V W X Y Z