Song name
# A B C D E F G H I J K L M N O P Q R S T U V W X Y Z

Tristan Prettyman - Love Love Love tab

Tristan Prettyman - Love Love Love
Tabbed by Mike Crozier
Tuning: Standard, Capo on 4th fret

Other Version of this was a bit off, this is what I came up with, hope you like it. And 
- CAPO ON 4TH FRET! :)

Intro:

E|---------------------------3---------------------------------------------|
B|---------------------------3---------------------------------------------|
G|----0---0h2-2/4-2p0---0----0------0---0h2-2/4-2p0---0-------0----0---0---|
D|-----2---------------0-0-----------2---------------0-0-------0--0-0---0--|
A|-0h2--2-------------3----------0h2--2-------------3---3/5------3---3-----|
E|------------------------3----------------------------------------------3-|

Verse: G - Bm - C - D

E|---3----0----0----0---|
B|---3----3----0----0---|
G|---0----0----5----7---|
D|---0----4----5----7---|
A|---2----2----3----5---|
E|---3----x----x----x---|

Chorus: Em - C - G - D

E|---0----0----3----2---|
B|---0----1----3----3---|
G|---0----0----0----2---|
D|---2----2----0----0---|
A|---2----3----2----x---|
E|---0----x----3----x---|

Bridge: C - D

E|---3----5---|
B|---3----5---|
G|---0----0---|
D|---2----4---|
A|---3----5---|
E|---x----x---|
Tap to rate this tab
 
# A B C D E F G H I J K L M N O P Q R S T U V W X Y Z