Guitaretab - guitar tabs
Song name
# A B C D E F G H I J K L M N O P Q R S T U V W X Y Z

Tristan Prettyman - Madly tab

Highlighted       Show chord diagrams
Madly - Tristan Prettyman

Capo 5th fret:

Chords:

    G       D      Em    C      C#     Am
--3---2---0---0---0---0-|
--3---3---0---1---3---1-|
--0---2---0---0---0---2-|
--0---0---2---2---4---2-|
--2---x---2---3---5---0-|
--3---x---0---0---0---x-|

Intro and verse:

-------------------------0-----------------------------|
-------------------------1-----------------------------|
------------0---0--------0--------0---0----------------| X6
--------2/4---4---4/2---- 2----2/4---4-----------------|
-0h2---------------------3-----------------------------|
-----h3------------------0-----------------------------|

Pre-Chorus:

Am                                C             C#
  Coz the time that it takes to open my eyes
Am                           C                  C#
 Is the time that it took me to realize

Chorus:

G
Madly, madly, madly
D
Well tell me that you need me
Em
Show me Im the only
C
And thats all I need to know
[ Tab from: http://www.guitaretab.com/t/tristan-prettyman/177913.html ]
G
Madly, madly, madly
D
Well if you really love me
Em
When you see me leaving, baby
C
Just let me go

The same as the first verse for the second verse

Well I`ve been good, no
Ive been great
You say your in a better place
And honestly im happy for you

but there's a tone in my voice
That gives away my selfish choice
Can my heart beat any faster

Pre- Chorus:

Am                                C             C#
  Coz the time that it takes to pass me by
Am                            C                  C#
  Is the time that it took me to realize


Repeat Chorus

Am
We give it up
           C
Try to find
                                            G
What was with us all the time
                                                        D
Gotta loose some things if you ever wanna get on by
Am
And who was wrong
                 C
Who was right
                                   G
Always end up in a fight

I thought i won
D
But now i find

Then comes a solo which i haven't figured out yet, if you know it pliz send

Repeat Chorus til end

End
Related for Madly tab