Song name
# A B C D E F G H I J K L M N O P Q R S T U V W X Y Z

Tristan Prettyman - Smoke tab

Help us improve GuitareTab! Take a short survey!
Tristan Prettyman

Smoke

Standard tuning 

Capo 5

x = slap 

(Verse)

           F        C        Am                             F        Am7       G*    

------1--x-------------------x-------------------------------3---x-----0-|
----1----x-1--------------0--x---1---------1-------1------1------x-----0-|
---------x-0-----------2-----x---2-------2-------0-----2---------x-------|
---------x-------0h2---------x---------3-------2-----------------x-------|
---------x-3-----------------x-----------------------------------x-------|
-0h1-----x-------------------x----------------------3------------x-------|


(Chorus)

     Am                    G                F                               
  
--------------x-----------------x-----------------x------------------x----|
----------1---x--0---------3----x--1----------1---x--1----------1----x--0-|
-------2------x--0-------0------x--2------2-------x--2--------0------x--0-|
-0h2----------x-----------------x--3----3---------x------------------x----|
--------------x-----------------x-----------------x--------3---------x----|
--------------x--------3--------x-----------------x------------------x----|


(Chord Chart)

 F           C        Am       Am7       G*         G    

-1----0----0-----0-----3-----3
-1----1----1-----1-----1-----3
-2----0----2-----0-----2-----0
-3----2----2-----2-----0-----0
-3----3----0-----0-----0-----2
-1----0----0-----0-----3-----3

Related for Smoke tab