Song name
# A B C D E F G H I J K L M N O P Q R S T U V W X Y Z

Tristan Prettyman - When It Rains tab

Capo 6

E------------------------------------------------------------------3-5-0-----|
B-----1------0h1h0----3------5--1-------1-------0h1h0------3-----------------|
G---2--2---2------------0-------------2---2---2--------------0---------------|
D-2------2----------2-------2-------2-------2------------2-------------------|
A-----------------3-------3----------------------------3-------3-------------|
E----------------------------------------------------------------------------|
          Am            Cadd9                                  Am                       Cadd9

----------------------------------------------------------------------------|
------1-------0h1h0-----3--------3------------------------------------------|
----2---2---2-------------0--------0---------0--------5---------------------|
--2-------2-----------2-------2----------------0--------4-------------------|
--------------------3-------3--------------2--------------------------------|
-----------------------------------------3-------3--------------------------|
         Am                                    Cadd9                                    Gmaj
Tap to rate this tab
 
# A B C D E F G H I J K L M N O P Q R S T U V W X Y Z