Song name
# A B C D E F G H I J K L M N O P Q R S T U V W X Y Z

Tristan Prettyman - Melting tab

Tristan Prettyman

Melting

Tuning: Standard


Verse.

 G*                                                                            Em

E--------------------------------------------------0-------|
B-----------------12--------------------  8-------0----0---|
G---------12---------12-----12--------7-----7-------7------|
D-----12-----12---------12---------9-----------------------|
A-10-------------------------------------------------------|
E----------------------------------------------------------|

   D

E-------------0----------|
B-------0h3---3----3-----|
G----0------------0------|
D------------------------|
A-5----------------------|
E------------------------|

    C                                                         Back to G

E--------------0---------|
B-------0h1-----1---0----|
G----0-------------0-----|
D------------------------|
A-3----------------------|
E------------------------|

Chorus.

    Am                                     F                     C                         G

E---------0------0--|       Pick a similar pattern to this on the rest of the Chords.
B---0h1----1------ -|
G-------------2-----|
D---2---------------|
A-0-----------------|
E ------------------|


Verse 2.

Verse 2 is more a less the same but she throws in some slaps and changes the G to

E-0---
B-0---
G-12-
D-12-
A-10-
E -x--

Instead of

E-0---
B-12-
G-12-
D-12-
A-10-
E-x---

Chord list:

G*           Em      D       C         Am      F

E-0----0---0----0----0----0--|
B-12---8---3----1----1----1--|
G-12---7---0----0----2----2--|
D-12---9---4----2----2----3--|
A-10---x---5----3----0----0--|
E-x-----x---x----x----x----x-|
Tap to rate this tab
 
# A B C D E F G H I J K L M N O P Q R S T U V W X Y Z