Song name
# A B C D E F G H I J K L M N O P Q R S T U V W X Y Z

Tristan Prettyman - Love Love Love tab

Song:    Love, Love, Love
Artist:  Tristan Prettyman
Album:   Twentythree
Video:   http://www.youtube.com/watch?v=xfyHjOcbL9s (Song starts at 2:50)
Author:  Marianne V. (mariannemvelasco@gmail.com)

Hereís my attempt at tabbing out the fingerpicking/strumming technique that TP uses.  It
isnít complicated once you get the hang of it; plus, itís the same pattern throughout
the entire song.  (See my video above for reference...sorry the audio is a little off!)

CAPO 4

-------------------------------------------------------------------------------------
  INTRO
-------------------------------------------------------------------------------------

e|--------------------------|---------------3--|--------------------------|
B|--------------------------|---------------3--|--------------------------|
G|------0-----0h2--2/4\2p0--|--------0------0--|------0-----0h2--2/4\2p0--|
D|--------2-----------------|------2---0----0--|--------2-----------------|
A|--0h2-----2---------------|--0h3-------------|--0h2-----2---------------|
E|--------------------------|------------3-----|--------------------------|

e|-----------------|---------------------|---------------|
B|-----------------|------------------3--|---------------|
G|--------0--------|----0----------0--0--|----0----------|
D|------2---2/4----|--4---4\2----2----2--|------2---0----|
A|--0h3---------5--|----------3-------3--|--3-----3------|
E|-----------------|---------------------|------------3--|

-------------------------------------------------------------------------------------
  VERSE
-------------------------------------------------------------------------------------

     G   Em  C   D
e|---3---0---0---0------|
B|---3---0---0---0------|       ANNOTATIONS
G|---4---0---0---0---| -|
D|---5---2---5---7------|       ^  Downstroke (toward high ďeĒ string)
A|---5---2---3---5------|       ,  Upstroke (toward low ďEĒ string)
E|---3---x---x---x------|       x  Mute by inserting fingertips between strings

    G                 Em                 C                  D
e|-------------3^--|------------------|------------------|------------------|
B|-------------3^--|--0,x---------0^--|--0,x---------0^--|--0,x---------0^--|
G|-------------4^--|--0,x--0,-----0^--|--0,x--0,-----0^--|--0,x--0,-----0^--|
D|---------5,--5^--|--2,x--2,-----2^--|--5,x--5,-----5^--|--7,x--7,-----7^--|
A|-------------5^--|----------2^--2^--|----------3^--3^--|----------5^--5^--|
E|--0^--3^---------|------------------|------------------|------------------| REPEAT

(TIP: On the downstroke right before each chord change, strum down with the nails of
your index/middle/ring/pinky fingers. On the following upstroke, strum up with your
thumbnail then flick your wrist slightly as if you were giving a ďthumbs-upĒ in order to 
mute those strings with your index/middle/ring/pinky fingertips.)

-------------------------------------------------------------------------------------
  CHORUS
-------------------------------------------------------------------------------------

     Em  C   G   D
e|---0---0---3---2---|
B|---0---1---3---3---|       ANNOTATIONS
G|---0---0---0---2---|       -----------
D|---2---2---0---0---|       ^  Downstroke
A|---2---3---2---x---|       ,  Upstroke
E|---x---x---3---x---|       x  Mute by inserting fingertips between strings

    Em                C                  G                 D
e|-------------0^--|--0,x-------------|-------------3^--|--2,x---------2^--|
B|-------------0^--|--1,x--1,-----1^--|-------------3^--|--3,x--3,-----3^--|
G|-------------0^--|--0,x--0,-----0^--|-------------0^--|--2,x--2,-----2^--|
D|---------2,--2^--|--------------2^--|---------0,--0^--|----------0^--0^--|
A|--0^--2^-----2^--|----------3^--3^--|-------------2^--|------------------|
E|-----------------|------------------|--0^--3^---------|------------------| REPEAT

-------------------------------------------------------------------------------------
  BRIDGE
-------------------------------------------------------------------------------------

  Cadd9 Dadd9
e|---3---5---|
B|---3---5---|       ANNOTATIONS
G|---0---0---|       -----------
D|---2---4---|       ^  Downstroke    /  Slide up
A|---3---5---|       ,  Upstroke      \  Slide down
E|---x---x---|       x  Mute by inserting fingertips between strings

    Cadd9                               Dadd9
e|---------3^--|--3,x---------3^--|---------------5^--|--5,x---------5^--|--------|
B|---------3^--|--3,x--3,-----3^--|---------------5^--|--5,x--5,-----5^--|--------|
G|---------0^--|--0,x--0,-----0^--|---------------0^--|--0,x--0,-----0^--|--------|
D|-----2,--2^--|--2,x---------2^--|-----------4,--4^--|--4,x---------4^--|--------|
A|--3^-----3^--|----------3^------|--3^/5--5^-----5^--|----------5^------|--5^\3--|
E|-------------|------------------|-------------------|------------------|--------|
                                                              REPEAT (End on Cadd9)

-------------------------------------------------------------------------------------
  LYRICS
-------------------------------------------------------------------------------------

VERSE 1   Well itís 4 A.M.
-------   The paper boyís at it again but I canít get no sleep
          I mean whatís the point
          If I canít even dream up a dream thatís worth the keep
          And so thereís no need in even going
          Cause Iím better off never knowing
          You know, the mediaís getting really good at lying
          And this time around, well Iím not buying

CHORUS    Well this life is a beautiful one
------    And though Iíve seen it coming undone
          Well I know most definitely
          That itís gonna be you, itís gonna be me
          So baby keep your head up
          Keep it on the up and up
          And know now that youíve got all my
          Love, love, love

VERSE 2   Cause weíre all just lovers and takers
-------   Breaking hearts to make the papers
          She wants love, I told her stop trying
          Cause the reasons for your tears arenít worth crying

CHORUS    And this life is a beautiful one
------    And though Iíve seen it coming undone
          Well I know most definitely
          Itís gonna be you, and itís gonna be me
          So baby keep your head up
          Keep it on the up and up
          And know now cause you got all my
          Love, love, love

BRIDGE    Loving all around me
------    Well I think that love has found me
          Loving all the time

VERSE 3   When the summerís here the waves are crashing
-------   No time for thinking, donít even ask me
          Gonna let it all blow right past me
          Cause when Iím here Iím always happy

CHORUS    And this life is a beautiful one
------    And though Iíve seen it coming undone
          Well I know most definitely
          It always works out the way itís meant to be
          So baby keep your head up
          Keep it on the up and up
          And know now cause you got all my
          Love, love, love (Resume VERSE)

          Love, love, oh, love
          Love, love, love
          La da, la da da da, etc.

          Love, love, love       End on e|----------|
                                        B|----------|
                                        G|----------|
                                        D|----------|
                                        A|----------|
                                        E|--0--0h3--|
Tap to rate this tab
# A B C D E F G H I J K L M N O P Q R S T U V W X Y Z