Guitaretab - guitar tabs
Song name
# A B C D E F G H I J K L M N O P Q R S T U V W X Y Z

Tristania - Beauty Of Awitch tab

Play and repete it until the muzik ends: Em, D/F#, Em, C, Em, D/F#, B7, Em.


Chords:
          
           Em   D/F#   C     B7 
e||-----|--3--|--2--|--3--|--2--|.
B||-----|--5--|--3--|--5--|--4--|.
G||-----|--4--|--2--|--5--|--2--|.
D||-----|--2--|--0--|--5--|--4--|.
A||-----|--2--|--0--|--3--|--2--|.
E||-----|--0--|--2--|--3--|--2--|.



XXX---The "more-conplicated" parts:---XXX

 Part 1
                                    
          
e||-----|--3--2--0----2--0--2---|--3--2--0----0-------|-----0--2--------------|.
B||-----|-----------------------|---------------------|--3--------------------|.
G||-----|-----------------------|---------------------|-----------------------|.
D||-----|--2----------0---------|--2----------3-------|-----------------------|.
A||-----|-----------------------|---------------------|-----------------------|.
E||-----|-----------------------|---------------------|-----------------------|.

e||-----|--3--2--0----2--0--2---|---------------------|-----------------------|.
B||-----|-----------------------|--4--2--4----5-------|-----------------------|.
G||-----|-----------------------|---------------------|-----------------------|.
D||-----|--2----------0---------|-------------2-------|-----------------------|.
A||-----|-----------------------|--2------------------|-----------------------|.
E||-----|-----------------------|---------------------|-----------------------|.
                     
                                                                                
 Part 2

                                     
e||-----|--3--2--7----7--5--3---|--3--0--2--7----3----|--0-----0--2-----------|.
B||-----|-----------------------|---------------------|-----3-----------------|.
G||-----|-----------------------|---------------------|-----------------------|.
D||-----|--2----------0---------|--2------------------|-----------------------|.
A||-----|-----------------------|----------------3----|-----------------------|.
E||-----|-----------------------|---------------------|-----------------------|.

e||-----|--3--2--0--2--0--------|--2--5--3------------|-------0---------------|.
B||-----|-----------------------|-------------4--2--4-|-2--0------------------|.
G||-----|-----------------------|---------------------|-----------------------|.
D||-----|--2--------------------|--0------------------|-------2---------------|.
A||-----|-----------------------|-------------2-------|-----------------------|.
E||-----|-----------------------|---------------------|-----------------------|.

[ Tab from: http://www.guitaretab.com/t/tristania/24593.html ]
Related for Beauty Of Awitch tab