Song name
# A B C D E F G H I J K L M N O P Q R S T U V W X Y Z

Tristania - Shining Path tab

Not the whole song, sorry, but most of it, which should be very accurate.
You all listen to it so I won't bother to write the rhythm.  (It's also my first tab)
. (under note)= Palm Mute

First Notes:
E -----------------------------------------------------|
B -----------------------------------------------------|
G -----------------------------------------------------|
Db--------3--------------------------------------------|
Ab--------3--------------------------------------------|
Eb------1-1--------------------------------------------|
        .

Later on:
E -----------------------------------------------------|
B -----------------------------------------------------|
G -----------------------------------------------------|   (4 Times)
Db--3------2-3------4--4--3------2-3------4--4--4------|
Ab--3------2-3------4--4--3------2-3------4--4--4------|
Eb--1------0-1------2--2--1------0-1------2--2--2------|
                    .  .                  .  .  .
("Sacrifice me for my sins...")

After the above:
E -----------------------------------------------------|
B -----------------------------------------------------|
G -----------------------------------------------------|
Db--3---2-3---4-3---2-3--4-----------------------------|
Ab--3---2-3---4-3---2-3--4-----------------------------|
Eb--1---0-1---2-1---0-1--2-----------------------------|
(This eventually goes over some solo-ish thing)

That's all I can do. Enjoy!
Tap to rate this tab
# A B C D E F G H I J K L M N O P Q R S T U V W X Y Z