Song name
# A B C D E F G H I J K L M N O P Q R S T U V W X Y Z

Tristania - Sirene tab

Help us improve GuitareTab! Take a short survey!
-------------------------------------------------------------------------------
			     SIRENE - Tristania
-------------------------------------------------------------------------------
Tabbed by: Kenabe
Email: Kberge01@hotmail.com

Tuning: EADGBe

e|-------------------------------|
B|-----5-3-----------------0h1---|
G|-0-2-----5-4-5-4-2-0-0-------2-|
D|-----------------------2-------|
A|-0-0---------3-----------------|
E|---------------------0---------|

e|---------------------------|
B|-----5-3-------------------|
G|-0-2-----5-4-5-4-2-0-0-4-2-|
D|---------------------------|
A|---0---------3---------2-0-|
E|---------------------3-----|

This is my first tab, but should be quite accurate.
Send a mail to Kberge01@hotmail.com for any comments or corrections.
Enjoy!
Related for Sirene tab