Song name
# A B C D E F G H I J K L M N O P Q R S T U V W X Y Z

Triumph - Little Boy Blues tab

Legend
------

 h  = hammer-on
 p  = pull-off
 ^  = bend
^^  = bend release
 /  = slide up/down
<5> = natural harmonic
[5] = artifical harmonic
 ~  = vibrato
 tr = trill
 r  = rest

# Tabbed by Ashley Dalby . Comments and corrections are welcome.

Open E Tuning    4/4 Timing

One of my favorite pieces. The entire song is based on emotion so good luck
trying match it. The music is rather upbeat and getting the solo to roll
smoothly is quite a challenge. Reading it is also a little difficult with all
the pulls and hammer-ons going on.

I would recommend listening to the song on Triumph's 'Thunder Seven', it is
the last track and is an instrumental to boot!

Good Luck!

Theme 1: (0:00 - 0:54)
			Bm				A/B
e|----------------|-----------------------------|-----------------------10---|
B|----------------|-----------------------------|----------------10--12------|
G|-------------7--|-----------------------7^7^--|--7~~~~~--7s11--------------|
D|----------7-----|--9~~~~~~-9s---------7-------|----------------------------|
A|--7--7h9--------|--------------7--7h9---------|----------------------------|
E|----------------|-----------------------------|----------------------------|

G7		Em7				C#m7(b5)	F#7(+5)
e|-------------------------------------|------------------------------------|
B|-12~~~~--10p7------------------------|----10~~-~~8~~8--7h8----------------|
G|---------------9^9^p7~~~~~~-7---9p7--|---x----p-------------9^^^9--7h9p7s-|
D|-------------------------------------|--x---------------------------------|
A|-------------------------------------|-x----------------------------------|
E|-------------------------------------|------------------------------------|

	Bm9							F#m7/A
e|----------------------------------------------|---------------------------|
B|--------------10--10---10---10p7---10^^^^-----|---------------------------|
G|-6~~~~~~~6---x-----------------------------7--|--7---9--9-9p7--9~~~~s--7--|
D|------------x---------------------------------|---------------------~9----|
A|-----------x----------------------------------|---------------------------|
E|----------------------------------------------|---------------------------|

	Em7			C#m7		F#7(+5)	Bm9
e|------------------------------|--------------------------------|
B|------------------------------|--------------------------------|
G|-7h9----9--9-9-7--9~~~~-------|---7^^7--6^6--6^^6~~------------|
D|---------------------9-9~~9---|-----------------------5---5s4--|
A|------------------------------|--------------------------------|
E|------------------------------|--------------------------------|

	Bm9			F#m7/A				Em5
e|---------------------|--------------------------|-12~~~12--12-10-12------------------|
B|--7------------------|-10--10-------------12p10-|-------------------12--12^--12s-----|
G|----9-7-9--9^^9p7--7-|---------9^^9p7--9--------|------------------------------s9-7--|
D|---------------------|--------------------------|------------------------------------|
A|---------------------|--------------------------|------------------------------------|
E|---------------------|--------------------------|------------------------------------|

	Asus		A	Em		D/F#		G	A		Bm		A
e|---------------------|--------------------------------------|-----------7h------------|
B|----------7----------|-10--10------7--------------10--12p10-|-12--0s10---h10^^-10-----|
G|-7h9---9-------------|---------9-----9p7--7s-s11------------|---------------------9-7-|
D|-------------7~~s~~9-|---------------------s4s--------------|-------------------------|
A|---------------------|--------------------------------------|-------------------------|
E|---------------------|--------------------------------------|-------------------------|

Theme 2: (0:54 - 1:31)

G			A				Bm		A/B
e|--------------|----------------------------------------|----sss17--17-17--17--17-14---|
B|--------------|-5-3-0-5-3-0-5-3-0-7-3-0-7-3-0s7-10-7-0-|-10-sss--------------------15-|
G|-9------------|--h-p---h-p---h-p-h-p-p-h-p-p---h--p-p--|------------------------------|
D|---9--9^9~~~~-|----------------------------------------|------------------------------|
A|--------------|----------------------------------------|------------------------------|
E|--------------|----------------------------------------|------------------------------|

E/B						F#5		A	Bm	D5	Bm
e|----17-17-17-17-17----17-17-17-17-17----17-17-17-17-17--------------------------|
B|-17----------------17---------|------17----------------17^^17p15----------------|
G|------------------------------|----------------------------------16--14h16^16^^-|
D|------------------------------|-------------------------------------------------|
A|------------------------------|-------------------------------------------------|
E|------------------------------|-------------------------------------------------|

	Bm			A(add 2)			E
e|-----22^^22--19---------------------------------------------------|
B|-----------------22^^22--19------22----22----------------------15-|
G|-16--------------------------21-----21------21p19-19---19---16----|
D|------------------------------------------------------------------|
A|------------------------------------------------------------------|
E|------------------------------------------------------------------|

	G6						F#7(add 6)				E5
e|---------------------------------|-------------------------------|----------------|
B|-15h17--17--17--17p15--17^17s----|-------------------10----------|----------------|
G|-------------------------------7-|-7h9--9--9--9p7^9------9^^9-7--|--9-------------|
D|-----------------------------9---|---------------------------p---|-----9--9--9--9-|
A|---------------------------------|-------------------------------|----------------|
E|---------------------------------|-------------------------------|----------------|

Drum Section:

Theme 3: (1:36 - 2:10)

	G7				Asus7		A7				D7
e|-----7-9-10-9--7h9p7----7---------------------------------------------|
B|-10------------------10---10p7---7h9p7--------------------------------|
G|-------------------------------9-------9-7h9p7------------------------|
D|-----------------------------------------------9-7h9p7----------------|
A|-------------------------------------------------------9s7p5--7p5--7--|
E|----------------------------------------------------------------------|

			C#m7(b5)	F#7(+5)	Bm	A
e|-12^^12-10h12p10p9-10p9s17-------|------------10p7----7--------------------------------|
B|---------------------------15----|-----------------10---10p7-10p7----------------------|
G|------------------------------14-|-16^^16-16----------------------10p9p7---9---7-------|
D|---------------------------------|---------------------------------------9---9---9p7---|
A|---------------------------------|---------------------------------------------------9-|
E|---------------------------------|-----------------------------------------------------|

Esus		E	Am7		   D9				G7
e|-----------|----------------------------------------------------------------------|
B|-----------|-0-2-3-5-3-2-0-3-5-7-5-3-0-7-8-10-8-7--10^s17^^17--15-----15-15s---15-|
G|-7---------|--h-h-h-p-p-p-h-h-h-p-p-p-h-h-h--p-p------------------16^^-----s16----|
D|----9p7--9-|----------------------------------------------------------------------|
A|-----------|----------------------------------------------------------------------|
E|-----------|----------------------------------------------------------------------|

	Gm7		Gm7/Bb			F#m7			Eb7
e|-----------------18^18--18-18^^--15-|-15h17~~~17--15-17-15\14~~~14--15--17--|
B|-17---17^^15------------------------|---------------h--p--------------------|
G|--------------15--------------------|---------------------------------------|
D|------------------------------------|---------------------------------------|
A|------------------------------------|---------------------------------------|
E|------------------------------------|---------------------------------------|

Theme 4: (2:12 - 2:44)

	Em7			F#7(+5)	Bm9
e|-14^^14--------------------------------------------------------|
B|--------17--15h17p15p14^14--14s^s7--10--10-7-10--10^^10--------|
G|---------------------------------------------------------7-----|
D|---------------------------------------------------------------|
A|---------------------------------------------------------------|
E|---------------------------------------------------------------|

F#m7			F#m7/A		G7(add 6)		Em7
e|-------------------------------|--------------------------------------|
B|----------------------------15-|-15h17--17~17--17--15--17-------------|
G|-r--9--7h9--9---9p7--9---16----|---------------------------16-16^16^^-|
D|-------------------------------|--------------------------------------|
A|-------------------------------|--------------------------------------|
E|-------------------------------|--------------------------------------|

	C#m7(b5)	F#7(+5)				Bm9
e|---------------------------------------------------------------|
B|-15^^15--14---------------------------------------17-----------|
G|--------------15^^15---------------------------16--------------|
D|----------------------16^^16--14h16p14s12--12--16~~~~~~16------|
A|---------------------------------------------------------------|
E|---------------------------------------------------------------|

		F#m7		F#m7/A	Em7			Em7
e|------------------------------|---------------------------14-15-17-15-|
B|-17------17-------------------|-17------17-------14-15-17-------------|
G|---^^16^^--^^16--16^^---16^^--|---^^16^^--^^16^^----------------------|
D|------------------------------|---------------------------------------|
A|------------------------------|---------------------------------------|
E|------------------------------|---------------------------------------|

	Asus2
e|-14h15p14----14-------------|-----------------------------------------------------|
B|----------17----17p15p14----|-14p15p14----14--------------------------------------|
G|-------------------------16-|----------16----16p14--14h16p14----14----------------|
D|----------------------------|--------------------------------16----16p14----------|
A|----------------------------|--------------------------------------------16s14p12-|
E|----------------------------|-----------------------------------------------------|

		A			Em		D/F#		G	A	  Bm		A
e|--------------------------|--------------------------------------|7~~~7----7-------|
B|--------------------------|-10~~~~~~10----------------10~~~12p10-|------10--10^^10-|
G|--------------------------|------------9--9--9p7-7s11------------|-----------------|
D|------------------/9~~~9--|--------------------------------------|-----------------|
A|----12h14~~~12--12s-------|--------------------------------------|-----------------|
E|-14p----------------------|--------------------------------------|-----------------|

			G				A				Bm
e|----------|-----------|-----------------------------9-10-12-|-12^^12s---17^^17--14-|
B|-10-------|-----------|---------------------9-10-12---------|-------s--------------|
G|-----9--9-|-9p7-7~~~7-|------------6-7-9-11-----------------|-------s16------------|
D|----------|-----------|----------9--------------------------|-------s--------------|
A|----------|-----------|--------9----------------------------|-------s--------------|
E|----------|-----------|-7-9-10------------------------------|-------s--------------|

	A/B				E/B
e|-----------------------|-----7-----7-----7-----7----------------------------|
B|-17^^17--15------------|---7-----7-----7-----7---10p7---7--10p7---7--10p7^--|
G|------------16^^16--14-|-9-----9-----9-----9----------9---------9-----------|
D|-----------------------|----------------------------------------------------|
A|-----------------------|----------------------------------------------------|
E|-----------------------|----------------------------------------------------|

Theme 6: (2:45 - 3:41)

	A							Bm			A/B
e|-17p14----14--17p14--14-14---17p14--14-14/////17-|----22^^22--19----------------------|
B|-------15----------------------------------------|-19------------22^^22--19-----22----|
G|-------------------------------------------------|---------------------------21----21-|
D|-------------------------------------------------|------------------------------------|
A|-------------------------------------------------|------------------------------------|
E|-------------------------------------------------|------------------------------------|

				Em
e---h-----------------------h---------------------7---|
B-5---7-8-7-5-5-----5-----5---7-5-----5-------h---8---|
G---------------7-7-----7---------7-7-----7-7---9-9---|
D---------------------5-----------------5-------------|
A-----------------------------------------------------|
E-----------------------------------------------------|

	E					G6
e|-------------------------------|---------------------------------|
B|----------------------------15-|-15h17--17~~17--17p15--17^17--r--|
G|-21p19~--19~~~19---r--r--16----|---------------------------------|
D|-------------------------------|---------------------------------|
A|-------------------------------|---------------------------------|
E|-------------------------------|---------------------------------|

	F#7(add B)			F#7				E5
e|-----------------------------------17------------------------------------------|
B|----15--15h17--17--17p15--17------------17^^^17p15--17-------------------------|
G|-16----------------------------------------------------16~~16~~~~~~16~~~~~~16--|
D|-------------------------------------------------------------------------------|
A|-------------------------------------------------------------------------------|
E|-------------------------------------------------------------------------------|
Tap to rate this tab
# A B C D E F G H I J K L M N O P Q R S T U V W X Y Z