Song name
# A B C D E F G H I J K L M N O P Q R S T U V W X Y Z

Triumph - Rock N Roll Machine tab

Tabbed by: Joshua Garcia (joshuag523@aol.com)

Tabs for the solo: Rock & Roll Machine by Triumph
Please rate and let me know if you have any corrections. Thank you.


Tuning: Standard (E A D G B E)


Solo
Guitar 1:
E||--------------------------|
B||--------------------------|
G||--/12-121212121212121212--|
D||--------------------------|
A||--------------------------|
E||--------------------------|


E||---------------------------------------------------------------------------|
B||---------------------------------------------------------------------------|
G||--15-12121212121212-17-12121212121212-15-12121212121212-17-12121212121212--|
D||---------------------------------------------------------------------------|
A||---------------------------------------------------------------------------|
E||---------------------------------------------------------------------------|


E||-----------------------------------------------------------------------------------|
B||-----------------------------------------------------------------------------------|
G||--15-121212-17-121212-15-121212-17-121212-15-121212-17-121212-15-121212-17-121212--|
D||-----------------------------------------------------------------------------------|
A||-----------------------------------------------------------------------------------|
E||-----------------------------------------------------------------------------------|


E||-----------------------------------------------------------------------------|
B||-----------------------------------------------------------------------------|
G||--15-14-13-12-11-14-13-11-10-13-12-10-9-12-11-9-8-11-10-8-7-10-9-7-6-9-7-0~--|
D||-----------------------------------------------------------------------------|
A||-----------------------------------------------------------------------------|
E||-----------------------------------------------------------------------------|


E||----------------------------------------|
B||----------------------------------------|
G||--0-0-0-0-0-0-0-0-12-0-0-0-0-0-0-0-0-0--|
D||--0-0-0-0-0-0-0-0-----------------------|
A||----------------------------------------|
E||----------------------------------------|


E||------------------------------------------------------------------------------|
B||------------------------------------------------------------------------------|
G||--12-15-12121212121212-17-12121212121212-15-12121212121212-17-12121212121212--|
D||------------------------------------------------------------------------------|
A||------------------------------------------------------------------------------|
E||------------------------------------------------------------------------------|


E||-----------------------------------------------------------------------------------|
B||-----------------------------------------------------------------------------------|
G||--15-121212-17-121212-15-121212-17-121212-15-121212-17-121212-15-121212-17-121212--|
D||-----------------------------------------------------------------------------------|
A||-----------------------------------------------------------------------------------|
E||-----------------------------------------------------------------------------------|


E||---------------------------------------------------------------------------|
B||---------------------------------------------------------------------------|
G||--15-121212-17-1212-17-1212-1715-12-17171615-1212-17-1212-15-1212-17-1212--|
D||---------------------------------------------------------------------------|
A||---------------------------------------------------------------------------|
E||---------------------------------------------------------------------------|


E||-----------------------------------------------------------------------------------|
B||-----------------------------------------------------------------------------------|
G||--15-14-12-11-14-13-11-10-13-12-10-9-12-11-9-8-11-10-8-7-10-9-7-6-9-8-6-5-8-7-5-4--|
D||-----------------------------------------------------------------------------------|
A||-----------------------------------------------------------------------------------|
E||-----------------------------------------------------------------------------------|


E||--------------------------------------------------------------------------------------|
B||--------------------------------------------------------------------------------------|
G||--7-5-4-7-5-4-5-4-5-4-0-3-2-0-3-2-0-5-3-3-4-0-0-5-6-7-6-0-0-7-8-9-8-0-0-8-9-10-9-0-0--|
D||--------------------------------------------------------------------------------------|
A||--------------------------------------------------------------------------------------|
E||--------------------------------------------------------------------------------------|


E||---------------------------------------------------------------------------|
B||---------------------------------------------------------------------------|
G||--9-10-11-10-11-12-11-------12b16~--------12b15--12b15--12b15--12b16~---r--|
D||---------------------------------------------------------------------------|
A||---------------------------------------------------------------------------|
E||---------------------------------------------------------------------------|


E||---------------------------------------------|
B||---------------------------------------------|
G||--0---4---7---5---4---5---7b9~~~~--------0~--|
D||-----------------------------------------0~--|
A||---------------------------------------------|
E||---------------------------------------------|


E||---------------------------------------------------|
B||---------------------------------------------------|
G||--7p4p0-7p4p0-7p4p0-7p4p0-9p5p0-9p5p0-9p5p0-9p5p0--|
D||---------------------------------------------------|
A||---------------------------------------------------|
E||---------------------------------------------------|


E||---------------------------------------------------|
B||---------------------------------------------------|
G||--7p4p0-7p4p0-7p4p0-7p4p0--------------------------|
D||--------------------------7p4p0-7p4p0-7p4p0-7p4p0--|
A||---------------------------------------------------|
E||---------------------------------------------------|


E||---------------------------------------------------|
B||---------------------------------------------------|
G||--7p4p0-7p4p0-9p5p0-9p5p0-7p4p0-7p4p0--------------|
D||--------------------------------------7p4p0-7p4p0--|
A||---------------------------------------------------|
E||---------------------------------------------------|


E||---------------------------------------------|
B||---------------------------------------------|
G||--7p4p0-7p4p0-9p5p0-9p5p0-7p4p0----------0~--|
D||--------------------------------7p4p0~-------|
A||---------------------------------------------|
E||---------------------------------------------|


E||---------------------------------------------------|
B||---------------------------------------------------|
G||--7p4p0-7p4p0-9p5p0-9p5p0-7p4p0-7p4p0--------------|
D||--------------------------------------7p4p0-7p4p0--|
A||---------------------------------------------------|
E||---------------------------------------------------|


E||---------------------------------------------------|
B||---------------------------------------------------|
G||--7p4p0-7p4p0-6p3p0-6p3p0-6p3p0-6p3p0-6p3p0-6p3p0--|
D||---------------------------------------------------|
A||---------------------------------------------------|
E||---------------------------------------------------|



This next part is played with a floating bridge, but I have also tabbed
it for the convinience of those who do not have one.



With Floating Bridge:
E||-------------------------------------------------------|
B||-------------------------------------------------------|
G||--5p3p0-5p3p0-5p3p0-5p3p0-5p3p0-5p3p0-5p3p0-5p3p0~w^~--|
D||-------------------------------------------------------|
A||-------------------------------------------------------|
E||-------------------------------------------------------|


E||-------------------------------------------------|
B||-------------------------------------------------|
G||--5p3p0-5p3p0-5p3p0-5p3p0-5p3p0-5p3p0-5p3p0~w^~--|
D||-------------------------------------------------|
A||-------------------------------------------------|
E||-------------------------------------------------|


E||-------------------------------------------------------------|
B||-------------------------------------------------------------|
G||--5p3p0-5p3p0-5p3p0-5p3p0-5p3p0-5p3p0-5p3p0-5p3p0-5p3p0~w^~--|
D||-------------------------------------------------------------|
A||-------------------------------------------------------------|
E||-------------------------------------------------------------|


E||-------------------------------------------------------------|
B||-------------------------------------------------------------|
G||--(w^~)-5p3p0-5p3p0-5p3p0-5p3p0-5p3p0-5p3p0-5p3p0-5p3p0~wv~--|
D||-------------------------------------------------------------|
A||-------------------------------------------------------------|
E||-------------------------------------------------------------|


E||-----------------------------------------|
B||-----------------------------------------|
G||--5p3p0-5p3p0-5p3p0-5p0h5p0h5p0h5p0~w^~--|
D||-----------------------------------------|
A||-----------------------------------------|
E||-----------------------------------------|



Without Floating Bridge:
E||------------------------------------------------------|
B||------------------------------------------------------|
G||--5p3p0-5p3p0-5p3p0-5p3p0-5p3p0-5p3p0-5p3p0-5p3-------|
D||------------------------------------------------5b8~--|
A||------------------------------------------------------|
E||------------------------------------------------------|


E||------------------------------------------------|
B||------------------------------------------------|
G||--5p3p0-5p3p0-5p3p0-5p3p0-5p3p0-5p3p0-5p3-------|
D||------------------------------------------5b8~--|
A||------------------------------------------------|
E||------------------------------------------------|

                                                     T
E||---------------------------------------------------------|
B||---------------------------------------------------------|
G||--5p3p0-5p3p0-5p3p0-5p3p0-5p3p0-5p3p0-5p3p0-5p3p0-6p4p1--|
D||---------------------------------------------------------|
A||---------------------------------------------------------|
E||---------------------------------------------------------|

     T     T     T     T     T     T     T     T
E||---------------------------------------------------|
B||---------------------------------------------------|
G||--7p5p2-7p5p2-7p5p2-7p5p2-7p5p2-7p5p2-7p5p2-6p4p1--|
D||---------------------------------------------------|
A||---------------------------------------------------|
E||---------------------------------------------------|


E||----------------------------------------|
B||----------------------------------------|
G||--5p3p0-5p3p0-5p3p0-5p0h5p0h5p0h5-------|
D||----------------------------------5b8~--|
A||----------------------------------------|
E||----------------------------------------|





E||---------------------------------------|------------------------------------------|
B||---------------------------------------|------------------------------------------|
G||-------------------------------3~------|-------------------------------5b7~---p3--|
D||----------------------3h5p3h5-------5--|----------------------3h5p3h5-------------|
A||------------3h5p3h5--------------------|------------3h5p3h5-----------------------|
E||--1h3p1h3------------------------------|--1h3p1h3---------------------------------|


E||-----------------------------------------------|-------------------------------------|
B||-----------------------------------------------|-------------------------------------|
G||-----------------------------------3~----------|-------------------------------7b9~--|
D||------------------------3h5p3h5p3-------5p4p3--|----------------------3h5p3h5--------|
A||------------3h5p3h5p3--------------------------|------------3h5p3h5------------------|
E||--1h3p1h3--------------------------------------|--1h3p1h3----------------------------|


E||----------------------------------------------|---------------------------------------------|
B||----------------------------------------------|---------------------------------------------|
G||--------------------------------3---3-5b7-3~--|---------------------------------------------|
D||--------------------3---3-5-3-5---5-----------|--------------------3---3-5-3----------------|
A||--------1---1-5-3-5---5-----------------------|--------1---1-5-3-5---5-------5-4-3-1-1~--/--|
E||--3-1-3---3-----------------------------------|--3-1-3---3----------------------------------|
     . . . . . . . . . . . . . . . . . .            . . . . . . . . . . . . . . . . . .

E||-------------------------------------------------------------------|
B||--------------------------------------------------------------15~--|
G||-----------------------------------------------15----15-17b20-15~--|
D||-----------------------------15----15-17-15-17----17---------------|
A||-----------13----13-17-15-17----17---------------------------------|
E||--15-13-15----15---------------------------------------------------|
     .  .  .  .  .  .  .  .  .  .  .  .  .  .  .  .  .  .

E||-------------------------------------------------------------|
B||-----------------------------------------------------15-17~--|
G||-----------------------------------------15----15----15-17~--|
D||-----------------------------15-17-15-17----17----17---------|
A||-----------13----13-17-15-17---------------------------------|
E||--15-13-15----15---------------------------------------------|
     .  .  .  .  .  .  .  .  .  .  .  .  .  .  .  .  .

E||---------------------------------------------------------------------------|
B||---------------------------------------------------------------------------|
G||-----------------------------------------------15----15-17-15----15--------|
D||-----------------------------15----15-17-15-17----17----------17----17-15--|
A||-----------13----13-17-15-17----17-----------------------------------------|
E||--15-13-15----15-----------------------------------------------------------|
     .  .  .  .  .  .  .  .  .  .  .  .  .  .  .  .  .  .              .  .

E||-------------------------------------------------------------------------|
B||-------------------------------------------------------------------------|
G||-----------------------------------------------15-------15b17r15~--------|
D||-----------------------------15----15-17-15-17----17-17-------------17\--|
A||-----------13----13-17-15-17----17---------------------------------------|
E||--15-13-15----15---------------------------------------------------------|
     .  .  .  .  .  .  .  .  .  .  .  .  .  .  .  .  .  .

E||------------------------------------------------------------------|
B||------------------------------------------------------------------|
G||-----------------------------------------------15----15-17-15-17--|
D||-----------------------------15----15-17-15-17----17--------------|
A||-----------13----13-17-15-17----17--------------------------------|
E||--15-13-15----15--------------------------------------------------|
     .  .  .  .  .  .  .  .  .  .  .  .  .  .  .  .  .  .

E||----------------------------------------------------------------------|
B||--15-15-18-15----15-15-15-18-15----15-15-15-18-15----15-15-15-18b20~--|
G||--------------17----------------17----------------17------------------|
D||----------------------------------------------------------------------|
A||----------------------------------------------------------------------|
E||----------------------------------------------------------------------|


E||---------------------------------------------------------------------------|
B||---------------------------------------------------------------------------|
G||-----------------------------------------------15----15-17-15----15-15-15--|
D||-----------------------------15----15-17-15-17----17----------17-----------|
A||-----------13----13-17-15-17----17-----------------------------------------|
E||--15-13-15----15-----------------------------------------------------------|
     .  .  .  .  .  .  .  .  .  .  .  .  .  .  .  .  .  .

E||---------------------------------------------------------------------|
B||---------------------------------------------------------------------|
G||---------------------------------------------------------------------|
D||--17-15----15-15-15--------------------------------------------------|
A||--------17----------17-13-15-15-15-15-15-15--------------------------|
E||--------------------------------------------15-13~--13~--13-0-15p13--|


E||---------------------------------------------------|
B||---------------------------------------------------|
G||-----------------------------------------15-15-15--|
D||-----------------------15-15-15-17-15-17-----------|
A||--------13/15-17-15-17-----------------------------|
E||--13-15--------------------------------------------|
     .  .  .  .

E||---------------------------------------------------------------------------------|
B||---------------------------------------------------------------------------------|
G||--17-15----15-15-15-17-15----15-15-15-17-15----15-15-15-17-15----15-15-15-17-15--|
D||--------17----------------17----------------17----------------17-----------------|
A||---------------------------------------------------------------------------------|
E||---------------------------------------------------------------------------------|


E||----------------------------------------------------------------------------|
B||--15-15-18-15----15-15-15-18-15----15-15-15-18-15----15-15-15-18-15-----15--|
G||--------------17----------------17----------------17----------------17------|
D||----------------------------------------------------------------------------|
A||----------------------------------------------------------------------------|
E||----------------------------------------------------------------------------|


E||------------------------------------------------------------------------------|
B||--15-18-15----15-18-15----15-18-15----15-18-15----15-18-15----15-18-15----15--|
G||-----------17----------17----------17----------17----------17----------17-----|
D||------------------------------------------------------------------------------|
A||------------------------------------------------------------------------------|
E||------------------------------------------------------------------------------|


E||-------------------------------------------------------------------------------------|
B||--15-18-15----15-18-15----15-18-15----15-18-15----15-18-15----15-15-18b20~----18-15--|
G||-----------17----------17----------17----------17----------17------------------------|
D||-------------------------------------------------------------------------------------|
A||-------------------------------------------------------------------------------------|
E||-------------------------------------------------------------------------------------|


E||--18b21-----17-----15---------------------------------------------|
B||--------------------------18-----17-----15------------------------|
G||----------------------------------------------18----18---17---15--|
D||------------------------------------------------------------------|
A||------------------------------------------------------------------|
E||------------------------------------------------------------------|


E||--------------------------------------------------------------------------------------|
B||--------------------------------------------------------------------------------------|
G||--------------------------------------------------------------------------------------|
D||--17---15b----------------------------------------------------------------------------|
A||------------17--17--16--15--13b-------------------13--14--15--------------13--14--15--|
E||---------------------------------15---13--14--15--------------13--14--15--------------|


E||---------------------------------------------------------------------------|
B||---------------------------------------------------------------------------|
G||---------------------------------------------------------------------------|
D||---------------------------------------------------------------------------|
A||-----------13-14-15----------13-14-15----------13-14-15----------13-14-15--|
E||--13-14-15----------13-14-15----------13-14-15----------13-14-15-----------|


E||---------------------------------------------------------------------------|
B||---------------------------------------------------------------------------|
G||---------------------------------------------------------------------------|
D||---------------------------------------------------------------------------|
A||-----------13h14h15----------13h14h15----------13h14h15----------13h14h15--|
E||--13h14h15----------13h14h15----------13h14h15----------13h14h15-----------|


E||---------------------------------------------------------------------------|
B||---------------------------------------------------------------------------|
G||---------------------------------------------------------------------------|
D||---------------------------------------------------------------------------|
A||-----------13h14h15----------13h14h15----------13h14h15----------13h14h15--|
E||--13h14h15----------13h14h15----------13h14h15----------13h14h15-----------|


E||-------------------------------------------------------------------------------------|
B||---------------------------------------------------------15~-------------------------|
G||---------------------------------------------------------15~-------------------------|
D||---------------------------------------------------------------17--15----------------|
A||--13h15p13-14h16p14-15h17p15-16h18p16-17h19p17-20p19-------------------17--16--15----|
E||-----------------------------------------------------0----------------------------0--|


E||---------------------------------------------18b20~----18b20-19b21-20b22-20b22-20b22~---r--|
B||--15~--(p0)---------15h17--------15-15-15-15-----------------------------------------------|
G||--15~---------------15h17--17b19-----------------------------------------------------------|
D||--------------15h17------------------------------------------------------------------------|
A||------------17-----------------------------------------------------------------------------|
E||-------------------------------------------------------------------------------------------|


E||--15h18p15h18p15h18p15h18p15h18p15h18p15h18p15h18p15---|
B||-------------------------------------------------------|
G||-------------------------------------------------------|
D||-------------------------------------------------------|
A||-------------------------------------------------------|
E||-------------------------------------------------------|


E||-----------------------------------------------------------|
B||--18---17---15---------------------------------------------|
G||----------------18--17--15b--------------------------------|
D||-----------------------------17--15b-----------------------|
A||--------------------------------------17--16--15--13b------|
E||-------------------------------------------------------15--|


E||----------------------------------------------------------------------------|
B||----------------------------------------------------------------------------|
G||----------------------------------------------------------------------------|
D||----------------------------------------------------------------------------|
A||--15--13b------15--13b------15--13b-----------------------------------------|
E||-----------15-----------15-----------15--14--13--12--11--10--9---8---7---6--|


E||----------------------------------------|
B||----------------------------------------|
G||----------------------------------------|
D||------------------------------------8~--|
A||------------------------------------8~--|
E||--5---4----3----2----1----2----3----6~--|





E||----------3------------------------------------3-6p5p3----------------------------------|
B||--------3---6-5-3--3------------------------------------6p5p3---------------------------|
G||--5b7----------------5p3--5--3b---------3-5b7------------------6p5p3--5p3---------------|
D||--------------------------------5-3-5-------------------------------------5--5p3--------|
A||---------------------------------------------------------------------------------3--1~--|
E||----------------------------------------------------------------------------------------|


E||------10-13-10------------5-8p5h8p5---5-------------------------------------------|
B||----11---------11--------6----------6---6-----------------------------------------|
G||--12--------------12----7----------------7----------------------------------------|
D||------------------------------------------5--0-7---10-8h10p8p7---8-7------7-------|
A||---------------------------------------------------------------------10-------10--|
E||----------------------------------------------------------------------------------|


E||----------------------|
B||----------------------|
G||----------------------|
D||----------------------|
A||--8-10-8-7-8-7----7~--|
E||---------------10-----|


E||-------------------------------------------|--------------------------------------------|
B||-------------------------------------------|----------------------17----15-17-15~-------|
G||-------------------------------------------|--------15--17p15-----17----15-17-15~-------|
D||--------8--10p8------10~-----8-10-8~-------|--/17-------------17-----17------------17~--|
A||--/10-----------10~-------10----------10~--|--------------------------------------------|
E||-------------------------------------------|--------------------------------------------|


E||---------------------------------------------------------------------|
B||---------------------------------------------------------------------|
G||--5p3p0--5p3p0--5p3p0--6p4p0--7p5p0--9p7p0--10p8p0--11p9p0--12p10p0--|
D||---------------------------------------------------------------------|
A||---------------------------------------------------------------------|
E||---------------------------------------------------------------------|


E||---------------------------------------------------------|
B||---------------------------------------------------------|
G||-14p12p0--16p14p0--17p15p0--19p17p0--19p17p0--19b23~--\--|
D||---------------------------------------------------------|
A||---------------------------------------------------------|
E||---------------------------------------------------------|




Tablature Legend
----------------
 h   hammer-on
 p   pull-off
 b   bend
 pb  pre-bend
 r   release bend
 ~   hold / vibrato
 .   palm mute
 /   slide up
 \   slide down
 *   pinch harmonic
 '   natural harmonic
 x   mute note
 T   tap
Tap to rate this tab
 
# A B C D E F G H I J K L M N O P Q R S T U V W X Y Z