Guitaretab - guitar tabs
Song name
# A B C D E F G H I J K L M N O P Q R S T U V W X Y Z

Triumph - Natures Child tab

   intro
E--------------------------------------------------|
B--------------------------------------------------|
D--------------------------------------------------|
G--9-7-9-7-------------12-10-----------------------|repeat a couple of times
A--9-7-9-7-7-8-9--9/12-12-10-12--------------------|
E----------7-8-9--9/12-------12--------------------|
[ Tab from: http://www.guitaretab.com/t/triumph/46664.html ]
 verses
E--------------------------------------------------|
B--------------------------------------------------|
D--------------------------------------------------|
G-9-9-7-9------------------------------------------|
A-9-9-7-9--9-7-9---x4------------------------------|
E-------- -9-7-9-----------------------------------|

  chorus
E--------------------------------------------------|
B--------------------------------------------------|
D--------------------------------------------------|
G-9-7-9--------------------------------------------|
A-9-7-9-9-8-7-----x4-------------------------------|
E-------9-8-7--------------------------------------|
repeat 1


thats pretty much it all u have to do is repeat it once more. sorry that i
couldnt get the full intro or solo but this is my first tab. triumph is the best
band in the world----peace
Related for Natures Child tab