Song name
# A B C D E F G H I J K L M N O P Q R S T U V W X Y Z

Triumph - Spellbound tab

Since there's only one tab on the internet which is only an intro i decided to tab a better version

SPELLBOUND
Triumph

Intro/Verse 
E--------------------------------|
B-----------------------6-x-x-8s-|
G-----7-------5-------7-5-x-x-7s-|
D-----7-------5-7-----7-3-x-x-5s-|
A-0-3-5-0-5-7-3-7-0-3-5----------|
E---------------5----------------|
Between Intro and Verse
E--------------|
B-----3----3---|
G---2----0-----|
D-0------------|
A------3-------|
E------------3-|
Pre-Chorus
E-------------------|
B-------------------|
G-----7-----7-----9-|
D-----7-----7-----9-|
A-0-3-5-0-3-5-3-5-7-|
E-------------------|
Bridge
E-------|
B-------|
G-------|
D-3-----|
A-3-----|
E-1-----|

all i got im to lazy for the rest

Travis M.
Tap to rate this tab
# A B C D E F G H I J K L M N O P Q R S T U V W X Y Z