Song name
# A B C D E F G H I J K L M N O P Q R S T U V W X Y Z

Triumph - Hooked On You tab

Help us improve GuitareTab! Take a short survey!
Hooked on You
BY Triumph
Intro + Chorus (Solo Not Included)

p=pull off


Intro
   A  A G  A    A  A G  D D
-----------------------x-x-x------------------------------|
-----------------------3-3-x------------------------------|
---2--2---2----2--2----2-2-x------------------------------|
---2--2---2----2--2---------------------------------------|
-----------------------------3p0--------------------------|
--------3-----------3-----------3-------------------------|

Chorus
 D  D  C  G
----------------------------------------------------|
----------------------------------------------------|
 7--7--5--------------------------------------------|
 7--7--5--5-----------------------------------------|
 5--5--3--5-----------------------------------------|
 ---------3-----------------------------------------|


 D  D  G  C
----------------------------------------------------|
 7--7--5--------------------------------------------|
 7--7--5--5-----------------------------------------|
 5--5--3--5-----------------------------------------|
 ---------3-----------------------------------------|

    F F  G G   D D  D
   ------------------------------------------------------------|
   ------------------------------------------------------------|
   -----------7-7--7-------------------------------------------|
   -3-3--5-5--7-7--7-------------------------------------------|
   -3-3--5-5--5-5--5-------------------------------------------|
   -1-1--3-3-----—---------------------------------------------|

You shouldn’t have a hard time playing this one!
Related for Hooked On You tab