Song name
# A B C D E F G H I J K L M N O P Q R S T U V W X Y Z

Trivium - Throes Of Perdition tab

Hi,

This is the Text-version of my Intro Tab...
The song is played on a 7-string Guitar

bpm: 126

   Gtr.1
    PM--------------------------------------------------||
E||-----------------------------------------------------||
B||-7--0--0--3--0--5--0--2--0--0--3--0--7-5-3-0-0-0-0---||
G||-----------------------------------------------------||
D||-----------------------------------------------------||
A||-----------------------------------------------------||
E||-----------------------------------------------------||
B||-----------------------------------------------------||
 ||
 ||Gtr.2                                                             2x
 || PM--------------------------------------------------||
E||-----------------------------------------------------||
B||-----------------------------------------------------||
G||-----------------------------------------------------||
D||-----------------------------------------------------||
A||-----------------------------------------------------||
E||-7--7--7--7--7--7--7--7--7--7--7--7--7-7-7-7-7-7-7---||
B||-----------------------------------------------------||


   Gtr.1
    PM-----------------------------------------------|  PM-----------------------------||
E||---------------------------------------------------|--------------------------------||
B||-7--0--0--3--0--5--0--2--0--0--3--0--7-5-3-0-0-0-0-|-7--0--0--3--0--5--0--2--0------||
G||---------------------------------------------------|--------------------------------||
D||---------------------------------------------------|--------------------------------||
A||---------------------------------------------------|--------------------------------||
E||---------------------------------------------------|--------------------------------||
B||---------------------------------------------------|--------------------------------||

------------------------||
-0--3--0--7-5-3-0-0-0-0-||
------------------------||
------------------------||
------------------------||
------------------------||
------------------------||

 ||
 ||Gtr.2
 || PM-----------------------------------------------|  PM--------------------------||
E||---------------------------------------------------|-----------------------------||
B||---------------------------------------------------|-----------------------------||
G||---------------------------------------------------|-----------------------------||
D||---------------------------------------------------|-----------------------------||
A||---------------------------------------------------|-----------------------------||
E||-5--5--5--5--5--5--5--5--5--5--5--5--5-5-5-5-5-5-5-|-0--0--0--0--0--0--0--0--0---||
B||---------------------------------------------------|-----------------------------||

------------------------||
------------------------||
------------------------||
------------------------||
------------------------||
-0--0--0--0-0-0-0-0-0-0-||
------------------------||

   Gtr.1
    PM--------------------------------------------------||
E||-----------------------------------------------------||
B||-7--0--0--3--0--5--0--2--0--0--3--0--7-5-3-0-0-0-0---||
G||-----------------------------------------------------||
D||-----------------------------------------------------||
A||-----------------------------------------------------||
E||-----------------------------------------------------||
B||-----------------------------------------------------||
 ||
 ||Gtr.2                                                             2x
 || PM--------------------------------------------------||
E||-----------------------------------------------------||
B||-----------------------------------------------------||
G||-----------------------------------------------------||
D||-----------------------------------------------------||
A||-----------------------------------------------------||
E||-3--3--3--3--3--3--3--3--3--3--3--3--3-3-3-3-3-3-3---||
B||-----------------------------------------------------||

   Gtr.1
E||---------------------------------------------------||
B||-7--0--0--3--0--5--0--2--0--0--3--0--7-5-3-0-0-0-0-||
G||---------------------------------------------------||
D||---------------------------------------------------||
A||---------------------------------------------------||
E||---------------------------------------------------||
B||---------------------------------------------------||
 ||
 ||Gtr.2                                                             2x
 || PM--------------------------------------------------||
E||-----------------------------------------------------||
B||-----------------------------------------------------||
G||-----------------------------------------------------||
D||-----------------------------------------------------||
A||-----------------------------------------------------||
E||-7--7--7--7--7--7--7--7--7--7--7--7--7-7-7-7-7-7-7---||
B||-----------------------------------------------------||

   Gtr.1
E||---------------------------------------------------|---------------------------|
B||-7--0--0--3--0--5--0--2--0--0--3--0--7-5-3-0-0-0-0-|-7--0--0--3--0--5--0--2--0-|
G||---------------------------------------------------|---------------------------|
D||---------------------------------------------------|---------------------------|
A||---------------------------------------------------|---------------------------|
E||---------------------------------------------------|---------------------------|
B||---------------------------------------------------|---------------------------|

------------------------||
-0--3--0--7-5-3-0-0-0-0-||
------------------------||
------------------------||
------------------------||
------------------------||
------------------------||

 ||
 ||Gtr.2
 || PM-----------------------------------------------|  PM---------------------------||
E||---------------------------------------------------|------------------------------||
B||---------------------------------------------------|------------------------------||
G||---------------------------------------------------|------------------------------||
D||---------------------------------------------------|------------------------------||
A||---------------------------------------------------|------------------------------||
E||-5--5--5--5--5--5--5--5--5--5--5--5--5-5-5-5-5-5-5-|-0--0--0--0--0--0--0--0--0----||
B||---------------------------------------------------|------------------------------||

------------------------||
------------------------||
------------------------||
------------------------||
------------------------||
-0--0--0--0-0-0-0-0-0-0-||
------------------------||


   Gtr.1
E||---------------------------------------------------||
B||-7--0--0--3--0--5--0--2--0--0--3--0--7-5-3-0-0-0-0-||
G||---------------------------------------------------||
D||---------------------------------------------------||
A||---------------------------------------------------||
E||---------------------------------------------------||
B||---------------------------------------------------||
 ||
 ||Gtr.2                                                             2x
 || PM--------------------------------------------------||
E||-----------------------------------------------------||
B||-----------------------------------------------------||
G||-----------------------------------------------------||
D||-----------------------------------------------------||
A||-----------------------------------------------------||
E||-3--3--3--3--3--3--3--3--3--3--3--3--3-3-3-3-3-3-3---||
B||-----------------------------------------------------||

   Gtr.1
E||---------------------------------------------------||
B||---------------------------------------------------||
G||---------------------------------------------------||
D||---------------------------------------------------||
A||-2--2--2--2----2--2--2--2--2--2----2--2------------||
E||-2--2--2--2----2--2--2--2--2--2----2--2------------||
B||-0--0--0--0----0--0--0--0--0--0----0--0------------||
 ||
 ||Gtr.2
E||---------------------------------------------------||
B||---------------------------------------------------||
G||---------------------------------------------------||
D||---------------------------------------------------||
A||-2--2--2--2----2--2--2--2--2--2----2--2------------||
E||-2--2--2--2----2--2--2--2--2--2----2--2------------||
B||-0--0--0--0----0--0--0--0--0--0----0--0------------||


   Gtr.1
E||---------------------------------------------------||
B||---------------------------------------------------||
G||---------------------------------------------------||
D||---------------------------------------------------||
A||---------------------------------------------------||
E||---------------------------------------------------||
B||-7--0--0--3--0--5--0--2--0--0--3--0--7--5--3--0----||
 ||
 ||                                                            8x
 ||Gtr.2
E||---------------------------------------------------||
B||---------------------------------------------------||
G||---------------------------------------------------||
D||---------------------------------------------------||
A||---------------------------------------------------||
E||---------------------------------------------------||
B||-7--0--0--3--0--5--0--2--0--0--3--0--7--5--3--0----||
Tap to rate this tab
 
# A B C D E F G H I J K L M N O P Q R S T U V W X Y Z