Song name
# A B C D E F G H I J K L M N O P Q R S T U V W X Y Z

Trivium - Torn Between Scylly And Charybdis tab

Help us improve GuitareTab! Take a short survey!
This is my first ever tab, so I decided to do a song I couldn't find a tab for...
Hopefully I got all the intro

Tempo=130bpm
Guitar 1
e|-7-0-0-7-0-0-7-0-0-7-0-0-7-0-7-0-10-0-0-10-0-0-10-0-9-0-0-9-0-0-9-0-|
b|--------------------------------------------------------------------|
g|--------------------------------------------------------------------|     
d|--------------------------------------------------------------------|
a|--------------------------------------------------------------------|
e|--------------------------------------------------------------------|
								}x6
e|-5-0-0-5-0-0-5-0-0-5-0-0-5-0-5-0-10-0-0-10-0-0-10-0-9-0-0-9-0-0-9-0-|
b|--------------------------------------------------------------------|
g|--------------------------------------------------------------------|     
d|--------------------------------------------------------------------|
a|--------------------------------------------------------------------|
e|--------------------------------------------------------------------|

Guitar 2 after 2x Guitar 1
e|-10-0-0-10-0-0-10-0-0-10-0-0-10-0-10-0-14-0-0-14-0-0-14-0-12-0-0-12-0-0-12-0|
b|----------------------------------------------------------------------------|
g|----------------------------------------------------------------------------|     
d|----------------------------------------------------------------------------|
a|----------------------------------------------------------------------------|
e|----------------------------------------------------------------------------|
                                                                                  x4
e|-7-0-0-7-0-0-7-0-0-7-0-0-7-0-7-0-14-0-0-14-0-0-14-0-12-0-0-12-0-0-12-0-|
b|-----------------------------------------------------------------------|
g|-----------------------------------------------------------------------|     
d|-----------------------------------------------------------------------|
a|-----------------------------------------------------------------------|
e|-----------------------------------------------------------------------|

Guitar 3 with Guitars 2 & 4
e|--------------------|
b|--------------------|
g|--------------------|     
d|-9---------7--------|	x1
a|-9---------7--------|
e|-7-9-10-12-5-9-10~~-|

e|-------------------|
b|-------------------|
g|-------------------|     
d|-9--------7--------|	x5
a|-9--------7--------|
e|-7-9-10-9-5-9-10~~-|

Guitar 4 with Guitars 2 & 3
e|--------------------|
b|--------------------|
g|--------------------|     
d|-9---------7--------|	  x1
a|-9---------7--------|
e|-7-9-10-12-5-9-10~~-|

e|----------------------|
b|----------------------|
g|----------------------|     
d|-7----------5---------|   x5
a|----------------------|
e|---11-12-11---11-12~~-|

All sustain at end

Jamasia
Related for Torn Between Scylly And Charybdis tab