Song name
# A B C D E F G H I J K L M N O P Q R S T U V W X Y Z

Trivium - Poison The Knife Or The Noose tab

Artist: Trivium
Album: Shogun (Special Edition)
Song: Poison, The Knife Or The Noose
Tabbed by: Dan O'Brien (danobrien@dsl.pipex.com)

This was a tab for the intro, but i got a request to tab the whole song, so i did :)
im sure you can work out the order in which it goes. and i think the solo is a bit off, 
you can make
ya mind up about that.


Intro
e|-----------------------------------------------------------------------|---------|
B|-----------------------------------------------------------------------|---------|
G|---------------------------------------------------------------4-------|---------|
D|----9-7-5-4-5-4---7-------4---5----------9-7-5-4-5-4---4-5-4-----7~~~--|---------|
A|--7-------------5---5-3-5---5---7------7-------------7-------7---------|-2-------|
E|-----------------------------------------------------------------------|-0-------|

Intro Harmony
e|-----------------------------------------------------------------------|---------|
B|-----------------------------------------------------------------------|---------|
G|----7-5-4---4-----5-----------4--------7-5-4---4--------4-----7-5------|-9~~-----|
D|--5-------7---7-4---4---4-7-5---5----5-------7---7-4--7---7-4----------|---------|
A|----------------------7------------------------------------------------|---------|
E|-----------------------------------------------------------------------|---------|


Verse
e|--------------------------------------------------------------------------------|
B|--------------------------------------------------------------------------------|
G|--------------------------------------------------------------------------------|
D|--2-------2----------2------2----3-0-3-2------2--------------------4---5--------|
A|--2-------2----------2------2----3-0-3-2------2----------3322------2-0-3--------|
E|-----0000---00000000---0000---00---------0000---00000000-----5320---------------|
Pm     ....   ........   ....   ..         ....   ........ ....        .

----------------------|
-4h5p4----------------|
-------7-5-4----------|
------------7-5-2-4-5-|
----------------0-2-3-|
----------------------|


Pre Chorus
e|-------------------------------------------------------------------------------------|
B|-------------------------------------------------------------------------------------|
G|-------------------------------------------------------------------------------------|
D|-4------4--------------4------4---------------5------5----------9------9-7-----------|
A|-2-2222-2-2222-2h3p2p0-2-2222-2-2222-2h3p2p0--3-3333-3-33333333-7-7777-7-5-555555----|
E|-------------------------------------------------------------------------------------|
Pm   ....   ....           ....   ....            ....   ........   ....     ......


Chorus (Heavy Wah) *They are elevens, twelves and thirteens. not ones, twos and threes.
e|-------------------------------------------------------|----------|
B|------------------------12-1212-1213-10-1012-8-810-----|----------|
G|-9999-910-12-1212101210--------------------------------|--9v~~----|
D|-------------------------------------------------------|----------|
A|-------------------------------------------------------|----------|
E|-------------------------------------------------------|----------|


Heavy Bit (i dont know the name lol)
e|-----------------------------------------------------------------------------------|
B|-----------------------------------------------------------------------------------|
G|-----------------------------------------------------------------------------------|
D|-9--------------------------10--------------------------7--------------------------|
A|-7--------9p7h9p7h10p7h10p7-8---------9p7h9p7h10p7h10p7-5--------9p7h9p7h10p7h10p7-|
E|---000000----------------------000000---------------------000000-------------------|
Pm   ......                      ......                     ......                   

-------------------|
-------------------|
-------------------|
-------9-7---------|
-3-2-3-7-5-3-2-----|
---------------3---|

Heavy Bit End
e|----------------------------------------|
B|----------------------------------------|
G|----------------------------------------|
D|-------9-7------------------------------|
A|-3-2-3-7-5-3-2---5-3-2---2--------------|
E|---------------3-------3---3-2----------|
Pm . . .     . . . . . . . . . .


Solo :s
e|-------------------------------------------------------------|
B|------------13-12--------------------------------------------|
G|-8-9-11-12--------14-12-11-----------------------------------|
D|---------------------------14-12-10--------------------------|
A|------------------------------------14-12-10-----------------|
E|---------------------------------------------14-12-----------|

This bit is tricky, but basicly, you have to put an open between each note. and i think 
are all
hammer-ons.

e|-3020305030203050-7050305070807050-150140120-170150140-190170150-20019017--22b24---|
B|-----------------------------------------------------------------------------------|
G|-----------------------------------------------------------------------------------|
D|-----------------------------------------------------------------------------------|
A|-----------------------------------------------------------------------------------|
E|-----------------------------------------------------------------------------------|


e|-19~~whammy--------15h19p15-----------14h17p14-----------12h15p12-----------10h14p10---------|
B|-----------------17--------17-------15--------15-------13--------13-------12--------12-------|
G|---------------16------------16---14------------14---12------------12---11------------11-----|
D|-------------17-----------------16-----------------14-----------------12----------------12---|
A|---------------------------------------------------------------------------------------------|
E|---------------------------------------------------------------------------------------------|


e|--------------------------------------------------------------------------------|
B|-171513-171513-1715-171513-171513-1715-191715-191715-1917-191715-191715-1917----|
G|--------------------------------------------------------------------------------|
D|--------------------------------------------------------------------------------|
A|--------------------------------------------------------------------------------|
E|--------------------------------------------------------------------------------|


e|--------------------171514-171514-1715-191715-191715-1917-201917-201917-2019--22b24----|
B|-201917-201917-2019--------------------------------------------------------------------|
G|---------------------------------------------------------------------------------------|
D|---------------------------------------------------------------------------------------|
A|---------------------------------------------------------------------------------------|
E|---------------------------------------------------------------------------------------|

Then:
Heavy Bit
Verse
Pre Chorus
Chorus
Heavy Bit

Thats It.... Plz Rate
Tap to rate this tab
# A B C D E F G H I J K L M N O P Q R S T U V W X Y Z